  0
SECTION
  2
HEADER
  9
$LIMMIN
 10
-0.000002
 20
-0.000003
  9
$LIMMAX
 10
100.000000
 20
100.000000
  9
$EXTMIN
 10
-0.000002
 20
-0.000003
  9
$EXTMAX
 10
100.000000
 20
100.000000
  9
$ANGBASE
 50
0.000000
  9
$ANGDIR
 70
0
  9
$INSUNITS
 70
0
  9
$DIMALT
 70
4
  9
$DIMLUNIT
 70
2
  9
$DIMASZ
 40
3.000000
  9
$DIMTXT
 40
5.000000
  9
$DIMRND
 40
0.010000
  9
$DIMEXE
 40
2.000000
  9
$DIMEXO
 40
2.000000
  9
$DIMAUNIT
 70
0
  9
$DIMADEC
 70
2
  9
$GRIDUNIT
 10
0.001000
 20
0.001000
  9
$PLIMMIN
 10
0.000000
 20
0.000000
  9
$PLIMMAX
 10
210.000000
 20
297.000000
  9
$PSVPSCALE
 40
1.000000
  0
ENDSEC
  0
SECTION
  2
TABLES
  0
TABLE
  2
LTYPE
 70
     1
  0
LTYPE
  2
CONTINUOUS
 70
    64
  3
Ausgez
 72
    65
 73
  0
 40
0.000000
  0
ENDTAB
  0
TABLE
  2
LAYER
 70
     1
  0
LAYER
  2
default
 70
    64
 62
7
  6
CONTINUOUS
  0
ENDTAB
  0
ENDSEC
  0
SECTION
  2
BLOCKS
  0
ENDSEC
  0
SECTION
  2
ENTITIES
  0
LINE
  8
default
  6
CONTINUOUS
 10
72.262031
 20
23.041237
 11
74.694970
 21
36.839081
 39
0
 62
0
  0
LINE
  8
default
  6
CONTINUOUS
 10
74.282282
 20
22.981081
 11
76.613959
 21
36.204653
 39
0
 62
0
  0
LINE
  8
default
  6
CONTINUOUS
 10
78.759445
 20
25.337281
 11
80.015261
 21
32.459265
 39
0
 62
0
  0
LINE
  8
default
  6
CONTINUOUS
 10
68.398178
 20
24.163275
 11
70.537942
 21
36.298462
 39
0
 62
0
  0
LINE
  8
default
  6
CONTINUOUS
 10
66.521362
 20
25.036901
 11
68.555734
 21
36.574359
 39
0
 62
0
  0
LINE
  8
default
  6
CONTINUOUS
 10
62.899102
 20
27.529096
 11
64.850960
 21
38.598615
 39
0
 62
0
  0
LINE
  8
default
  6
CONTINUOUS
 10
61.169336
 20
29.236643
 11
63.071781
 21
40.025941
 39
0
 62
0
  0
LINE
  8
default
  6
CONTINUOUS
 10
57.972436
 20
34.141200
 11
59.724490
 21
44.077617
 39
0
 62
0
  0
LINE
  8
default
  6
CONTINUOUS
 10
56.652147
 20
38.171002
 11
58.230503
 21
47.122310
 39
0
 62
0
  0
LINE
  8
default
  6
CONTINUOUS
 10
78.708563
 20
99.294774
 11
76.275627
 21
85.496939
 39
0
 62
0
  0
LINE
  8
default
  6
CONTINUOUS
 10
76.688306
 20
99.354931
 11
74.356638
 21
86.131365
 39
0
 62
0
  0
LINE
  8
default
  6
CONTINUOUS
 10
72.211143
 20
96.998731
 11
70.955346
 21
89.876746
 39
0
 62
0
  0
LINE
  8
default
  6
CONTINUOUS
 10
82.572411
 20
98.172728
 11
80.432655
 21
86.037561
 39
0
 62
0
  0
LINE
  8
default
  6
CONTINUOUS
 10
84.449222
 20
97.299111
 11
82.414863
 21
85.761660
 39
0
 62
0
  0
LINE
  8
default
  6
CONTINUOUS
 10
88.071491
 20
94.806920
 11
86.119641
 21
83.737405
 39
0
 62
0
  0
LINE
  8
default
  6
CONTINUOUS
 10
89.801262
 20
93.099371
 11
87.898817
 21
82.310062
 39
0
 62
0
  0
LINE
  8
default
  6
CONTINUOUS
 10
92.998166
 20
88.194814
 11
91.246103
 21
78.258404
 39
0
 62
0
  0
LINE
  8
default
  6
CONTINUOUS
 10
94.318442
 20
84.165019
 11
92.740095
 21
75.213702
 39
0
 62
0
  0
LINE
  8
default
  6
CONTINUOUS
 10
28.375768
 20
65.254432
 11
14.418391
 21
64.033331
 39
0
 62
0
  0
LINE
  8
default
  6
CONTINUOUS
 10
27.911001
 20
67.221421
 11
14.534530
 21
66.051133
 39
0
 62
0
  0
LINE
  8
default
  6
CONTINUOUS
 10
24.476313
 20
70.936195
 11
17.271978
 21
70.305899
 39
0
 62
0
  0
LINE
  8
default
  6
CONTINUOUS
 10
28.292010
 20
61.231828
 11
16.016507
 21
60.157865
 39
0
 62
0
  0
LINE
  8
default
  6
CONTINUOUS
 10
27.933903
 20
59.192867
 11
16.263042
 21
58.171799
 39
0
 62
0
  0
LINE
  8
default
  6
CONTINUOUS
 10
26.464141
 20
55.048997
 11
15.266630
 21
54.069337
 39
0
 62
0
  0
LINE
  8
default
  6
CONTINUOUS
 10
25.262474
 20
52.936223
 11
14.348425
 21
51.981374
 39
0
 62
0
  0
LINE
  8
default
  6
CONTINUOUS
 10
21.352448
 20
48.578865
 11
11.301144
 21
47.699483
 39
0
 62
0
  0
LINE
  8
default
  6
CONTINUOUS
 10
17.801681
 20
46.260569
 11
8.746873
 21
45.468377
 39
0
 62
0
  0
LINE
  8
default
  6
CONTINUOUS
 10
10.404803
 20
1.577630
 11
24.362181
 21
2.798743
 39
0
 62
0
  0
LINE
  8
default
  6
CONTINUOUS
 10
10.488562
 20
5.600242
 11
22.764059
 21
6.674209
 39
0
 62
0
  0
LINE
  8
default
  6
CONTINUOUS
 10
10.846661
 20
7.639208
 11
22.517525
 21
8.660275
 39
0
 62
0
  0
LINE
  8
default
  6
CONTINUOUS
 10
12.316426
 20
11.783078
 11
23.513942
 21
12.762730
 39
0
 62
0
  0
LINE
  8
default
  6
CONTINUOUS
 10
13.518096
 20
13.895847
 11
24.432147
 21
14.850701
 39
0
 62
0
  0
LINE
  8
default
  6
CONTINUOUS
 10
17.428117
 20
18.253210
 11
27.479425
 21
19.132587
 39
0
 62
0
  0
LINE
  8
default
  6
CONTINUOUS
 10
20.978891
 20
20.571500
 11
30.033690
 21
21.363688
 39
0
 62
0
  0
LINE
  8
default
  6
CONTINUOUS
 10
14.304257
 20
95.895879
 11
21.508585
 21
96.526175
 39
0
 62
0
  0
LINE
  8
default
  6
CONTINUOUS
 10
10.869562
 20
99.610657
 11
15.319821
 21
100.000000
 39
0
 62
0
  0
LINE
  8
default
  6
CONTINUOUS
 10
15.319832
 20
0.000000
 11
24.246041
 21
0.780939
 39
0
 62
0
  0
LINE
  8
default
  6
CONTINUOUS
 10
69.373923
 20
65.737035
 11
65.374648
 21
64.291962
 39
0
 62
0
  0
LINE
  8
default
  6
CONTINUOUS
 10
65.374648
 20
64.291962
 11
61.687066
 21
62.174376
 39
0
 62
0
  0
LINE
  8
default
  6
CONTINUOUS
 10
61.687066
 20
62.174376
 11
58.423216
 21
59.448615
 39
0
 62
0
  0
LINE
  8
default
  6
CONTINUOUS
 10
58.423216
 20
59.448615
 11
55.682276
 21
56.197500
 39
0
 62
0
  0
LINE
  8
default
  6
CONTINUOUS
 10
55.682276
 20
56.197500
 11
53.547530
 21
52.519825
 39
0
 62
0
  0
LINE
  8
default
  6
CONTINUOUS
 10
53.547530
 20
52.519825
 11
52.083835
 21
48.527326
 39
0
 62
0
  0
LINE
  8
default
  6
CONTINUOUS
 10
52.083835
 20
48.527326
 11
51.335671
 21
44.341309
 39
0
 62
0
  0
LINE
  8
default
  6
CONTINUOUS
 10
51.335671
 20
44.341309
 11
51.325763
 21
40.088972
 39
0
 62
0
  0
LINE
  8
default
  6
CONTINUOUS
 10
51.325763
 20
40.088972
 11
52.054417
 21
35.899516
 39
0
 62
0
  0
LINE
  8
default
  6
CONTINUOUS
 10
52.054417
 20
35.899516
 11
53.499490
 21
31.900235
 39
0
 62
0
  0
LINE
  8
default
  6
CONTINUOUS
 10
53.499490
 20
31.900235
 11
55.617081
 21
28.212652
 39
0
 62
0
  0
LINE
  8
default
  6
CONTINUOUS
 10
55.617081
 20
28.212652
 11
58.342841
 21
24.948805
 39
0
 62
0
  0
LINE
  8
default
  6
CONTINUOUS
 10
58.342841
 20
24.948805
 11
61.593953
 21
22.207867
 39
0
 62
0
  0
LINE
  8
default
  6
CONTINUOUS
 10
61.593953
 20
22.207867
 11
65.271627
 21
20.073118
 39
0
 62
0
  0
LINE
  8
default
  6
CONTINUOUS
 10
65.271627
 20
20.073118
 11
69.264131
 21
18.609421
 39
0
 62
0
  0
LINE
  8
default
  6
CONTINUOUS
 10
69.264131
 20
18.609421
 11
71.396765
 21
18.134023
 39
0
 62
0
  0
LINE
  8
default
  6
CONTINUOUS
 10
69.373923
 20
65.737035
 11
67.379655
 21
64.487860
 39
0
 62
0
  0
LINE
  8
default
  6
CONTINUOUS
 10
67.379655
 20
64.487860
 11
65.632597
 21
62.911355
 39
0
 62
0
  0
LINE
  8
default
  6
CONTINUOUS
 10
65.632597
 20
62.911355
 11
64.185844
 21
61.055427
 39
0
 62
0
  0
LINE
  8
default
  6
CONTINUOUS
 10
64.185844
 20
61.055427
 11
63.083342
 21
58.976466
 39
0
 62
0
  0
LINE
  8
default
  6
CONTINUOUS
 10
63.083342
 20
58.976466
 11
62.358599
 21
56.737649
 39
0
 62
0
  0
LINE
  8
default
  6
CONTINUOUS
 10
62.358599
 20
56.737649
 11
62.033635
 21
54.406986
 39
0
 62
0
  0
LINE
  8
default
  6
CONTINUOUS
 10
62.033635
 20
54.406986
 11
62.118319
 21
52.055310
 39
0
 62
0
  0
LINE
  8
default
  6
CONTINUOUS
 10
62.118319
 20
52.055310
 11
62.610082
 21
49.754056
 39
0
 62
0
  0
LINE
  8
default
  6
CONTINUOUS
 10
62.610082
 20
49.754056
 11
63.493988
 21
47.573168
 39
0
 62
0
  0
LINE
  8
default
  6
CONTINUOUS
 10
63.493988
 20
47.573168
 11
64.743171
 21
45.578896
 39
0
 62
0
  0
LINE
  8
default
  6
CONTINUOUS
 10
64.743171
 20
45.578896
 11
66.319672
 21
43.831842
 39
0
 62
0
  0
LINE
  8
default
  6
CONTINUOUS
 10
66.319672
 20
43.831842
 11
68.175596
 21
42.385081
 39
0
 62
0
  0
LINE
  8
default
  6
CONTINUOUS
 10
68.175596
 20
42.385081
 11
69.950852
 21
41.415525
 39
0
 62
0
  0
LINE
  8
default
  6
CONTINUOUS
 10
71.393799
 20
18.117204
 11
73.478507
 21
17.934816
 39
0
 62
0
  0
LINE
  8
default
  6
CONTINUOUS
 10
73.478507
 20
17.934816
 11
75.563215
 21
18.117204
 39
0
 62
0
  0
LINE
  8
default
  6
CONTINUOUS
 10
75.563215
 20
18.117204
 11
77.584582
 21
18.658826
 39
0
 62
0
  0
LINE
  8
default
  6
CONTINUOUS
 10
77.584582
 20
18.658826
 11
79.481175
 21
19.543225
 39
0
 62
0
  0
LINE
  8
default
  6
CONTINUOUS
 10
79.481175
 20
19.543225
 11
81.195399
 21
20.743534
 39
0
 62
0
  0
LINE
  8
default
  6
CONTINUOUS
 10
81.195399
 20
20.743534
 11
82.675139
 21
22.223274
 39
0
 62
0
  0
LINE
  8
default
  6
CONTINUOUS
 10
82.675139
 20
22.223274
 11
83.875443
 21
23.937487
 39
0
 62
0
  0
LINE
  8
default
  6
CONTINUOUS
 10
83.875443
 20
23.937487
 11
84.759830
 21
25.834090
 39
0
 62
0
  0
LINE
  8
default
  6
CONTINUOUS
 10
84.759830
 20
25.834090
 11
85.301466
 21
27.855457
 39
0
 62
0
  0
LINE
  8
default
  6
CONTINUOUS
 10
85.301466
 20
27.855457
 11
85.483860
 21
29.940164
 39
0
 62
0
  0
LINE
  8
default
  6
CONTINUOUS
 10
85.483860
 20
29.940164
 11
85.301466
 21
32.024872
 39
0
 62
0
  0
LINE
  8
default
  6
CONTINUOUS
 10
85.301466
 20
32.024872
 11
84.759830
 21
34.046235
 39
0
 62
0
  0
LINE
  8
default
  6
CONTINUOUS
 10
84.759830
 20
34.046235
 11
83.875443
 21
35.942836
 39
0
 62
0
  0
LINE
  8
default
  6
CONTINUOUS
 10
83.875443
 20
35.942836
 11
82.675139
 21
37.657051
 39
0
 62
0
  0
LINE
  8
default
  6
CONTINUOUS
 10
82.675139
 20
37.657051
 11
81.195399
 21
39.136791
 39
0
 62
0
  0
LINE
  8
default
  6
CONTINUOUS
 10
81.195399
 20
39.136791
 11
79.481175
 21
40.337091
 39
0
 62
0
  0
LINE
  8
default
  6
CONTINUOUS
 10
79.481175
 20
40.337091
 11
77.584582
 21
41.221499
 39
0
 62
0
  0
LINE
  8
default
  6
CONTINUOUS
 10
77.584582
 20
41.221499
 11
75.563215
 21
41.763122
 39
0
 62
0
  0
LINE
  8
default
  6
CONTINUOUS
 10
75.563215
 20
41.763122
 11
73.478507
 21
41.945512
 39
0
 62
0
  0
LINE
  8
default
  6
CONTINUOUS
 10
73.478507
 20
41.945512
 11
71.393799
 21
41.763122
 39
0
 62
0
  0
LINE
  8
default
  6
CONTINUOUS
 10
71.393799
 20
41.763122
 11
69.950852
 21
41.415525
 39
0
 62
0
  0
LINE
  8
default
  6
CONTINUOUS
 10
57.569796
 20
49.222061
 11
56.617646
 21
45.978124
 39
0
 62
0
  0
LINE
  8
default
  6
CONTINUOUS
 10
56.617646
 20
45.978124
 11
56.243265
 21
42.618122
 39
0
 62
0
  0
LINE
  8
default
  6
CONTINUOUS
 10
56.243265
 20
42.618122
 11
56.458029
 21
39.244160
 39
0
 62
0
  0
LINE
  8
default
  6
CONTINUOUS
 10
56.458029
 20
39.244160
 11
57.255414
 21
35.958747
 39
0
 62
0
  0
LINE
  8
default
  6
CONTINUOUS
 10
57.255414
 20
35.958747
 11
58.611188
 21
32.861713
 39
0
 62
0
  0
LINE
  8
default
  6
CONTINUOUS
 10
58.611188
 20
32.861713
 11
60.484163
 21
30.047157
 39
0
 62
0
  0
LINE
  8
default
  6
CONTINUOUS
 10
60.484163
 20
30.047157
 11
62.817415
 21
27.600599
 39
0
 62
0
  0
LINE
  8
default
  6
CONTINUOUS
 10
62.817415
 20
27.600599
 11
65.540079
 21
25.596373
 39
0
 62
0
  0
LINE
  8
default
  6
CONTINUOUS
 10
65.540079
 20
25.596373
 11
68.569387
 21
24.095387
 39
0
 62
0
  0
LINE
  8
default
  6
CONTINUOUS
 10
68.569387
 20
24.095387
 11
71.813333
 21
23.143235
 39
0
 62
0
  0
LINE
  8
default
  6
CONTINUOUS
 10
71.813333
 20
23.143235
 11
72.265005
 21
23.058063
 39
0
 62
0
  0
LINE
  8
default
  6
CONTINUOUS
 10
74.219081
 20
66.058377
 11
74.257060
 21
66.492500
 39
0
 62
0
  0
LINE
  8
default
  6
CONTINUOUS
 10
74.257060
 20
66.492500
 11
74.219081
 21
66.926618
 39
0
 62
0
  0
LINE
  8
default
  6
CONTINUOUS
 10
74.219081
 20
66.926618
 11
74.106283
 21
67.347547
 39
0
 62
0
  0
LINE
  8
default
  6
CONTINUOUS
 10
74.106283
 20
67.347547
 11
73.922122
 21
67.742502
 39
0
 62
0
  0
LINE
  8
default
  6
CONTINUOUS
 10
73.922122
 20
67.742502
 11
73.672161
 21
68.099473
 39
0
 62
0
  0
LINE
  8
default
  6
CONTINUOUS
 10
73.672161
 20
68.099473
 11
73.364021
 21
68.407609
 39
0
 62
0
  0
LINE
  8
default
  6
CONTINUOUS
 10
73.364021
 20
68.407609
 11
73.007058
 21
68.657561
 39
0
 62
0
  0
LINE
  8
default
  6
CONTINUOUS
 10
73.007058
 20
68.657561
 11
72.612104
 21
68.841727
 39
0
 62
0
  0
LINE
  8
default
  6
CONTINUOUS
 10
72.612104
 20
68.841727
 11
72.191179
 21
68.954521
 39
0
 62
0
  0
LINE
  8
default
  6
CONTINUOUS
 10
72.191179
 20
68.954521
 11
71.757056
 21
68.992499
 39
0
 62
0
  0
LINE
  8
default
  6
CONTINUOUS
 10
71.757056
 20
68.992499
 11
71.322938
 21
68.954521
 39
0
 62
0
  0
LINE
  8
default
  6
CONTINUOUS
 10
71.322938
 20
68.954521
 11
70.902009
 21
68.841727
 39
0
 62
0
  0
LINE
  8
default
  6
CONTINUOUS
 10
70.902009
 20
68.841727
 11
70.507055
 21
68.657561
 39
0
 62
0
  0
LINE
  8
default
  6
CONTINUOUS
 10
70.507055
 20
68.657561
 11
70.150083
 21
68.407609
 39
0
 62
0
  0
LINE
  8
default
  6
CONTINUOUS
 10
70.150083
 20
68.407609
 11
69.841943
 21
68.099473
 39
0
 62
0
  0
LINE
  8
default
  6
CONTINUOUS
 10
69.841943
 20
68.099473
 11
69.591995
 21
67.742502
 39
0
 62
0
  0
LINE
  8
default
  6
CONTINUOUS
 10
69.591995
 20
67.742502
 11
69.407820
 21
67.347547
 39
0
 62
0
  0
LINE
  8
default
  6
CONTINUOUS
 10
69.407820
 20
67.347547
 11
69.295036
 21
66.926618
 39
0
 62
0
  0
LINE
  8
default
  6
CONTINUOUS
 10
69.295036
 20
66.926618
 11
69.257057
 21
66.492500
 39
0
 62
0
  0
LINE
  8
default
  6
CONTINUOUS
 10
69.257057
 20
66.492500
 11
69.295036
 21
66.058377
 39
0
 62
0
  0
LINE
  8
default
  6
CONTINUOUS
 10
69.295036
 20
66.058377
 11
69.407820
 21
65.637452
 39
0
 62
0
  0
LINE
  8
default
  6
CONTINUOUS
 10
69.407820
 20
65.637452
 11
69.591995
 21
65.242498
 39
0
 62
0
  0
LINE
  8
default
  6
CONTINUOUS
 10
69.591995
 20
65.242498
 11
69.841943
 21
64.885527
 39
0
 62
0
  0
LINE
  8
default
  6
CONTINUOUS
 10
69.841943
 20
64.885527
 11
70.150083
 21
64.577391
 39
0
 62
0
  0
LINE
  8
default
  6
CONTINUOUS
 10
70.150083
 20
64.577391
 11
70.507055
 21
64.327439
 39
0
 62
0
  0
LINE
  8
default
  6
CONTINUOUS
 10
70.507055
 20
64.327439
 11
70.902009
 21
64.143264
 39
0
 62
0
  0
LINE
  8
default
  6
CONTINUOUS
 10
70.902009
 20
64.143264
 11
71.322938
 21
64.030479
 39
0
 62
0
  0
LINE
  8
default
  6
CONTINUOUS
 10
71.322938
 20
64.030479
 11
71.757056
 21
63.992501
 39
0
 62
0
  0
LINE
  8
default
  6
CONTINUOUS
 10
71.757056
 20
63.992501
 11
72.191179
 21
64.030479
 39
0
 62
0
  0
LINE
  8
default
  6
CONTINUOUS
 10
72.191179
 20
64.030479
 11
72.612104
 21
64.143264
 39
0
 62
0
  0
LINE
  8
default
  6
CONTINUOUS
 10
72.612104
 20
64.143264
 11
73.007058
 21
64.327439
 39
0
 62
0
  0
LINE
  8
default
  6
CONTINUOUS
 10
73.007058
 20
64.327439
 11
73.364021
 21
64.577391
 39
0
 62
0
  0
LINE
  8
default
  6
CONTINUOUS
 10
73.364021
 20
64.577391
 11
73.672161
 21
64.885527
 39
0
 62
0
  0
LINE
  8
default
  6
CONTINUOUS
 10
73.672161
 20
64.885527
 11
73.922122
 21
65.242498
 39
0
 62
0
  0
LINE
  8
default
  6
CONTINUOUS
 10
73.922122
 20
65.242498
 11
74.106283
 21
65.637452
 39
0
 62
0
  0
LINE
  8
default
  6
CONTINUOUS
 10
74.106283
 20
65.637452
 11
74.219081
 21
66.058377
 39
0
 62
0
  0
LINE
  8
default
  6
CONTINUOUS
 10
60.548829
 20
62.107746
 11
60.586812
 21
62.541864
 39
0
 62
0
  0
LINE
  8
default
  6
CONTINUOUS
 10
60.586812
 20
62.541864
 11
60.548829
 21
62.975991
 39
0
 62
0
  0
LINE
  8
default
  6
CONTINUOUS
 10
60.548829
 20
62.975991
 11
60.436045
 21
63.396920
 39
0
 62
0
  0
LINE
  8
default
  6
CONTINUOUS
 10
60.436045
 20
63.396920
 11
60.251875
 21
63.791865
 39
0
 62
0
  0
LINE
  8
default
  6
CONTINUOUS
 10
60.251875
 20
63.791865
 11
60.001922
 21
64.148833
 39
0
 62
0
  0
LINE
  8
default
  6
CONTINUOUS
 10
60.001922
 20
64.148833
 11
59.693782
 21
64.456977
 39
0
 62
0
  0
LINE
  8
default
  6
CONTINUOUS
 10
59.693782
 20
64.456977
 11
59.336815
 21
64.706929
 39
0
 62
0
  0
LINE
  8
default
  6
CONTINUOUS
 10
59.336815
 20
64.706929
 11
58.941865
 21
64.891100
 39
0
 62
0
  0
LINE
  8
default
  6
CONTINUOUS
 10
58.941865
 20
64.891100
 11
58.520936
 21
65.003889
 39
0
 62
0
  0
LINE
  8
default
  6
CONTINUOUS
 10
58.520936
 20
65.003889
 11
58.086813
 21
65.041872
 39
0
 62
0
  0
LINE
  8
default
  6
CONTINUOUS
 10
58.086813
 20
65.041872
 11
57.652695
 21
65.003889
 39
0
 62
0
  0
LINE
  8
default
  6
CONTINUOUS
 10
57.652695
 20
65.003889
 11
57.231761
 21
64.891100
 39
0
 62
0
  0
LINE
  8
default
  6
CONTINUOUS
 10
57.231761
 20
64.891100
 11
56.836816
 21
64.706929
 39
0
 62
0
  0
LINE
  8
default
  6
CONTINUOUS
 10
56.836816
 20
64.706929
 11
56.479844
 21
64.456977
 39
0
 62
0
  0
LINE
  8
default
  6
CONTINUOUS
 10
56.479844
 20
64.456977
 11
56.171704
 21
64.148833
 39
0
 62
0
  0
LINE
  8
default
  6
CONTINUOUS
 10
56.171704
 20
64.148833
 11
55.921748
 21
63.791865
 39
0
 62
0
  0
LINE
  8
default
  6
CONTINUOUS
 10
55.921748
 20
63.791865
 11
55.737582
 21
63.396920
 39
0
 62
0
  0
LINE
  8
default
  6
CONTINUOUS
 10
55.737582
 20
63.396920
 11
55.624793
 21
62.975991
 39
0
 62
0
  0
LINE
  8
default
  6
CONTINUOUS
 10
55.624793
 20
62.975991
 11
55.586814
 21
62.541864
 39
0
 62
0
  0
LINE
  8
default
  6
CONTINUOUS
 10
55.586814
 20
62.541864
 11
55.624793
 21
62.107746
 39
0
 62
0
  0
LINE
  8
default
  6
CONTINUOUS
 10
55.624793
 20
62.107746
 11
55.737582
 21
61.686816
 39
0
 62
0
  0
LINE
  8
default
  6
CONTINUOUS
 10
55.737582
 20
61.686816
 11
55.921748
 21
61.291866
 39
0
 62
0
  0
LINE
  8
default
  6
CONTINUOUS
 10
55.921748
 20
61.291866
 11
56.171704
 21
60.934899
 39
0
 62
0
  0
LINE
  8
default
  6
CONTINUOUS
 10
56.171704
 20
60.934899
 11
56.479844
 21
60.626759
 39
0
 62
0
  0
LINE
  8
default
  6
CONTINUOUS
 10
56.479844
 20
60.626759
 11
56.836816
 21
60.376803
 39
0
 62
0
  0
LINE
  8
default
  6
CONTINUOUS
 10
56.836816
 20
60.376803
 11
57.231761
 21
60.192637
 39
0
 62
0
  0
LINE
  8
default
  6
CONTINUOUS
 10
57.231761
 20
60.192637
 11
57.652695
 21
60.079848
 39
0
 62
0
  0
LINE
  8
default
  6
CONTINUOUS
 10
57.652695
 20
60.079848
 11
58.086813
 21
60.041865
 39
0
 62
0
  0
LINE
  8
default
  6
CONTINUOUS
 10
58.086813
 20
60.041865
 11
58.520936
 21
60.079848
 39
0
 62
0
  0
LINE
  8
default
  6
CONTINUOUS
 10
58.520936
 20
60.079848
 11
58.941865
 21
60.192637
 39
0
 62
0
  0
LINE
  8
default
  6
CONTINUOUS
 10
58.941865
 20
60.192637
 11
59.336815
 21
60.376803
 39
0
 62
0
  0
LINE
  8
default
  6
CONTINUOUS
 10
59.336815
 20
60.376803
 11
59.693782
 21
60.626759
 39
0
 62
0
  0
LINE
  8
default
  6
CONTINUOUS
 10
59.693782
 20
60.626759
 11
60.001922
 21
60.934899
 39
0
 62
0
  0
LINE
  8
default
  6
CONTINUOUS
 10
60.001922
 20
60.934899
 11
60.251875
 21
61.291866
 39
0
 62
0
  0
LINE
  8
default
  6
CONTINUOUS
 10
60.251875
 20
61.291866
 11
60.436045
 21
61.686816
 39
0
 62
0
  0
LINE
  8
default
  6
CONTINUOUS
 10
60.436045
 20
61.686816
 11
60.548829
 21
62.107746
 39
0
 62
0
  0
LINE
  8
default
  6
CONTINUOUS
 10
53.415996
 20
52.415361
 11
53.453975
 21
52.849479
 39
0
 62
0
  0
LINE
  8
default
  6
CONTINUOUS
 10
53.453975
 20
52.849479
 11
53.415996
 21
53.283601
 39
0
 62
0
  0
LINE
  8
default
  6
CONTINUOUS
 10
53.415996
 20
53.283601
 11
53.303207
 21
53.704526
 39
0
 62
0
  0
LINE
  8
default
  6
CONTINUOUS
 10
53.303207
 20
53.704526
 11
53.119037
 21
54.099480
 39
0
 62
0
  0
LINE
  8
default
  6
CONTINUOUS
 10
53.119037
 20
54.099480
 11
52.869085
 21
54.456448
 39
0
 62
0
  0
LINE
  8
default
  6
CONTINUOUS
 10
52.869085
 20
54.456448
 11
52.560944
 21
54.764592
 39
0
 62
0
  0
LINE
  8
default
  6
CONTINUOUS
 10
52.560944
 20
54.764592
 11
52.203977
 21
55.014540
 39
0
 62
0
  0
LINE
  8
default
  6
CONTINUOUS
 10
52.203977
 20
55.014540
 11
51.809023
 21
55.198710
 39
0
 62
0
  0
LINE
  8
default
  6
CONTINUOUS
 10
51.809023
 20
55.198710
 11
51.388094
 21
55.311495
 39
0
 62
0
  0
LINE
  8
default
  6
CONTINUOUS
 10
51.388094
 20
55.311495
 11
50.953976
 21
55.349478
 39
0
 62
0
  0
LINE
  8
default
  6
CONTINUOUS
 10
50.953976
 20
55.349478
 11
50.519853
 21
55.311495
 39
0
 62
0
  0
LINE
  8
default
  6
CONTINUOUS
 10
50.519853
 20
55.311495
 11
50.098928
 21
55.198710
 39
0
 62
0
  0
LINE
  8
default
  6
CONTINUOUS
 10
50.098928
 20
55.198710
 11
49.703974
 21
55.014540
 39
0
 62
0
  0
LINE
  8
default
  6
CONTINUOUS
 10
49.703974
 20
55.014540
 11
49.347007
 21
54.764592
 39
0
 62
0
  0
LINE
  8
default
  6
CONTINUOUS
 10
49.347007
 20
54.764592
 11
49.038858
 21
54.456448
 39
0
 62
0
  0
LINE
  8
default
  6
CONTINUOUS
 10
49.038858
 20
54.456448
 11
48.788914
 21
54.099480
 39
0
 62
0
  0
LINE
  8
default
  6
CONTINUOUS
 10
48.788914
 20
54.099480
 11
48.604744
 21
53.704526
 39
0
 62
0
  0
LINE
  8
default
  6
CONTINUOUS
 10
48.604744
 20
53.704526
 11
48.491955
 21
53.283601
 39
0
 62
0
  0
LINE
  8
default
  6
CONTINUOUS
 10
48.491955
 20
53.283601
 11
48.453977
 21
52.849479
 39
0
 62
0
  0
LINE
  8
default
  6
CONTINUOUS
 10
48.453977
 20
52.849479
 11
48.491955
 21
52.415361
 39
0
 62
0
  0
LINE
  8
default
  6
CONTINUOUS
 10
48.491955
 20
52.415361
 11
48.604744
 21
51.994427
 39
0
 62
0
  0
LINE
  8
default
  6
CONTINUOUS
 10
48.604744
 20
51.994427
 11
48.788914
 21
51.599477
 39
0
 62
0
  0
LINE
  8
default
  6
CONTINUOUS
 10
48.788914
 20
51.599477
 11
49.038858
 21
51.242510
 39
0
 62
0
  0
LINE
  8
default
  6
CONTINUOUS
 10
49.038858
 20
51.242510
 11
49.347007
 21
50.934370
 39
0
 62
0
  0
LINE
  8
default
  6
CONTINUOUS
 10
49.347007
 20
50.934370
 11
49.703974
 21
50.684413
 39
0
 62
0
  0
LINE
  8
default
  6
CONTINUOUS
 10
49.703974
 20
50.684413
 11
50.098928
 21
50.500247
 39
0
 62
0
  0
LINE
  8
default
  6
CONTINUOUS
 10
50.098928
 20
50.500247
 11
50.519853
 21
50.387458
 39
0
 62
0
  0
LINE
  8
default
  6
CONTINUOUS
 10
50.519853
 20
50.387458
 11
50.953976
 21
50.349480
 39
0
 62
0
  0
LINE
  8
default
  6
CONTINUOUS
 10
50.953976
 20
50.349480
 11
51.388094
 21
50.387458
 39
0
 62
0
  0
LINE
  8
default
  6
CONTINUOUS
 10
51.388094
 20
50.387458
 11
51.809023
 21
50.500247
 39
0
 62
0
  0
LINE
  8
default
  6
CONTINUOUS
 10
51.809023
 20
50.500247
 11
52.203977
 21
50.684413
 39
0
 62
0
  0
LINE
  8
default
  6
CONTINUOUS
 10
52.203977
 20
50.684413
 11
52.560944
 21
50.934370
 39
0
 62
0
  0
LINE
  8
default
  6
CONTINUOUS
 10
52.560944
 20
50.934370
 11
52.869085
 21
51.242510
 39
0
 62
0
  0
LINE
  8
default
  6
CONTINUOUS
 10
52.869085
 20
51.242510
 11
53.119037
 21
51.599477
 39
0
 62
0
  0
LINE
  8
default
  6
CONTINUOUS
 10
53.119037
 20
51.599477
 11
53.303207
 21
51.994427
 39
0
 62
0
  0
LINE
  8
default
  6
CONTINUOUS
 10
53.303207
 20
51.994427
 11
53.415996
 21
52.415361
 39
0
 62
0
  0
LINE
  8
default
  6
CONTINUOUS
 10
51.224081
 20
40.582555
 11
51.262063
 21
41.016678
 39
0
 62
0
  0
LINE
  8
default
  6
CONTINUOUS
 10
51.262063
 20
41.016678
 11
51.224081
 21
41.450796
 39
0
 62
0
  0
LINE
  8
default
  6
CONTINUOUS
 10
51.224081
 20
41.450796
 11
51.111296
 21
41.871721
 39
0
 62
0
  0
LINE
  8
default
  6
CONTINUOUS
 10
51.111296
 20
41.871721
 11
50.927126
 21
42.266679
 39
0
 62
0
  0
LINE
  8
default
  6
CONTINUOUS
 10
50.927126
 20
42.266679
 11
50.677178
 21
42.623646
 39
0
 62
0
  0
LINE
  8
default
  6
CONTINUOUS
 10
50.677178
 20
42.623646
 11
50.369033
 21
42.931791
 39
0
 62
0
  0
LINE
  8
default
  6
CONTINUOUS
 10
50.369033
 20
42.931791
 11
50.012066
 21
43.181739
 39
0
 62
0
  0
LINE
  8
default
  6
CONTINUOUS
 10
50.012066
 20
43.181739
 11
49.617116
 21
43.365909
 39
0
 62
0
  0
LINE
  8
default
  6
CONTINUOUS
 10
49.617116
 20
43.365909
 11
49.196187
 21
43.478698
 39
0
 62
0
  0
LINE
  8
default
  6
CONTINUOUS
 10
49.196187
 20
43.478698
 11
48.762064
 21
43.516677
 39
0
 62
0
  0
LINE
  8
default
  6
CONTINUOUS
 10
48.762064
 20
43.516677
 11
48.327946
 21
43.478698
 39
0
 62
0
  0
LINE
  8
default
  6
CONTINUOUS
 10
48.327946
 20
43.478698
 11
47.907013
 21
43.365909
 39
0
 62
0
  0
LINE
  8
default
  6
CONTINUOUS
 10
47.907013
 20
43.365909
 11
47.512067
 21
43.181739
 39
0
 62
0
  0
LINE
  8
default
  6
CONTINUOUS
 10
47.512067
 20
43.181739
 11
47.155096
 21
42.931791
 39
0
 62
0
  0
LINE
  8
default
  6
CONTINUOUS
 10
47.155096
 20
42.931791
 11
46.846955
 21
42.623646
 39
0
 62
0
  0
LINE
  8
default
  6
CONTINUOUS
 10
46.846955
 20
42.623646
 11
46.596999
 21
42.266679
 39
0
 62
0
  0
LINE
  8
default
  6
CONTINUOUS
 10
46.596999
 20
42.266679
 11
46.412833
 21
41.871721
 39
0
 62
0
  0
LINE
  8
default
  6
CONTINUOUS
 10
46.412833
 20
41.871721
 11
46.300044
 21
41.450796
 39
0
 62
0
  0
LINE
  8
default
  6
CONTINUOUS
 10
46.300044
 20
41.450796
 11
46.262065
 21
41.016678
 39
0
 62
0
  0
LINE
  8
default
  6
CONTINUOUS
 10
46.262065
 20
41.016678
 11
46.300044
 21
40.582555
 39
0
 62
0
  0
LINE
  8
default
  6
CONTINUOUS
 10
46.300044
 20
40.582555
 11
46.412833
 21
40.161630
 39
0
 62
0
  0
LINE
  8
default
  6
CONTINUOUS
 10
46.412833
 20
40.161630
 11
46.596999
 21
39.766676
 39
0
 62
0
  0
LINE
  8
default
  6
CONTINUOUS
 10
46.596999
 20
39.766676
 11
46.846955
 21
39.409709
 39
0
 62
0
  0
LINE
  8
default
  6
CONTINUOUS
 10
46.846955
 20
39.409709
 11
47.155096
 21
39.101560
 39
0
 62
0
  0
LINE
  8
default
  6
CONTINUOUS
 10
47.155096
 20
39.101560
 11
47.512067
 21
38.851616
 39
0
 62
0
  0
LINE
  8
default
  6
CONTINUOUS
 10
47.512067
 20
38.851616
 11
47.907013
 21
38.667446
 39
0
 62
0
  0
LINE
  8
default
  6
CONTINUOUS
 10
47.907013
 20
38.667446
 11
48.327946
 21
38.554657
 39
0
 62
0
  0
LINE
  8
default
  6
CONTINUOUS
 10
48.327946
 20
38.554657
 11
48.762064
 21
38.516679
 39
0
 62
0
  0
LINE
  8
default
  6
CONTINUOUS
 10
48.762064
 20
38.516679
 11
49.196187
 21
38.554657
 39
0
 62
0
  0
LINE
  8
default
  6
CONTINUOUS
 10
49.196187
 20
38.554657
 11
49.617116
 21
38.667446
 39
0
 62
0
  0
LINE
  8
default
  6
CONTINUOUS
 10
49.617116
 20
38.667446
 11
50.012066
 21
38.851616
 39
0
 62
0
  0
LINE
  8
default
  6
CONTINUOUS
 10
50.012066
 20
38.851616
 11
50.369033
 21
39.101560
 39
0
 62
0
  0
LINE
  8
default
  6
CONTINUOUS
 10
50.369033
 20
39.101560
 11
50.677178
 21
39.409709
 39
0
 62
0
  0
LINE
  8
default
  6
CONTINUOUS
 10
50.677178
 20
39.409709
 11
50.927126
 21
39.766676
 39
0
 62
0
  0
LINE
  8
default
  6
CONTINUOUS
 10
50.927126
 20
39.766676
 11
51.111296
 21
40.161630
 39
0
 62
0
  0
LINE
  8
default
  6
CONTINUOUS
 10
51.111296
 20
40.161630
 11
51.224081
 21
40.582555
 39
0
 62
0
  0
LINE
  8
default
  6
CONTINUOUS
 10
54.411925
 20
28.978353
 11
54.449908
 21
29.412473
 39
0
 62
0
  0
LINE
  8
default
  6
CONTINUOUS
 10
54.449908
 20
29.412473
 11
54.411925
 21
29.846593
 39
0
 62
0
  0
LINE
  8
default
  6
CONTINUOUS
 10
54.411925
 20
29.846593
 11
54.299140
 21
30.267523
 39
0
 62
0
  0
LINE
  8
default
  6
CONTINUOUS
 10
54.299140
 20
30.267523
 11
54.114970
 21
30.662473
 39
0
 62
0
  0
LINE
  8
default
  6
CONTINUOUS
 10
54.114970
 20
30.662473
 11
53.865022
 21
31.019442
 39
0
 62
0
  0
LINE
  8
default
  6
CONTINUOUS
 10
53.865022
 20
31.019442
 11
53.556878
 21
31.327580
 39
0
 62
0
  0
LINE
  8
default
  6
CONTINUOUS
 10
53.556878
 20
31.327580
 11
53.199911
 21
31.577534
 39
0
 62
0
  0
LINE
  8
default
  6
CONTINUOUS
 10
53.199911
 20
31.577534
 11
52.804952
 21
31.761705
 39
0
 62
0
  0
LINE
  8
default
  6
CONTINUOUS
 10
52.804952
 20
31.761705
 11
52.384027
 21
31.874489
 39
0
 62
0
  0
LINE
  8
default
  6
CONTINUOUS
 10
52.384027
 20
31.874489
 11
51.949909
 21
31.912474
 39
0
 62
0
  0
LINE
  8
default
  6
CONTINUOUS
 10
51.949909
 20
31.912474
 11
51.515791
 21
31.874489
 39
0
 62
0
  0
LINE
  8
default
  6
CONTINUOUS
 10
51.515791
 20
31.874489
 11
51.094857
 21
31.761705
 39
0
 62
0
  0
LINE
  8
default
  6
CONTINUOUS
 10
51.094857
 20
31.761705
 11
50.699903
 21
31.577534
 39
0
 62
0
  0
LINE
  8
default
  6
CONTINUOUS
 10
50.699903
 20
31.577534
 11
50.342940
 21
31.327580
 39
0
 62
0
  0
LINE
  8
default
  6
CONTINUOUS
 10
50.342940
 20
31.327580
 11
50.034795
 21
31.019442
 39
0
 62
0
  0
LINE
  8
default
  6
CONTINUOUS
 10
50.034795
 20
31.019442
 11
49.784843
 21
30.662473
 39
0
 62
0
  0
LINE
  8
default
  6
CONTINUOUS
 10
49.784843
 20
30.662473
 11
49.600677
 21
30.267523
 39
0
 62
0
  0
LINE
  8
default
  6
CONTINUOUS
 10
49.600677
 20
30.267523
 11
49.487888
 21
29.846593
 39
0
 62
0
  0
LINE
  8
default
  6
CONTINUOUS
 10
49.487888
 20
29.846593
 11
49.449910
 21
29.412473
 39
0
 62
0
  0
LINE
  8
default
  6
CONTINUOUS
 10
49.449910
 20
29.412473
 11
49.487888
 21
28.978353
 39
0
 62
0
  0
LINE
  8
default
  6
CONTINUOUS
 10
49.487888
 20
28.978353
 11
49.600677
 21
28.557421
 39
0
 62
0
  0
LINE
  8
default
  6
CONTINUOUS
 10
49.600677
 20
28.557421
 11
49.784843
 21
28.162474
 39
0
 62
0
  0
LINE
  8
default
  6
CONTINUOUS
 10
49.784843
 20
28.162474
 11
50.034795
 21
27.805504
 39
0
 62
0
  0
LINE
  8
default
  6
CONTINUOUS
 10
50.034795
 20
27.805504
 11
50.342940
 21
27.497362
 39
0
 62
0
  0
LINE
  8
default
  6
CONTINUOUS
 10
50.342940
 20
27.497362
 11
50.699903
 21
27.247410
 39
0
 62
0
  0
LINE
  8
default
  6
CONTINUOUS
 10
50.699903
 20
27.247410
 11
51.094857
 21
27.063237
 39
0
 62
0
  0
LINE
  8
default
  6
CONTINUOUS
 10
51.094857
 20
27.063237
 11
51.515791
 21
26.950455
 39
0
 62
0
  0
LINE
  8
default
  6
CONTINUOUS
 10
51.515791
 20
26.950455
 11
51.949909
 21
26.912474
 39
0
 62
0
  0
LINE
  8
default
  6
CONTINUOUS
 10
51.949909
 20
26.912474
 11
52.384027
 21
26.950455
 39
0
 62
0
  0
LINE
  8
default
  6
CONTINUOUS
 10
52.384027
 20
26.950455
 11
52.804952
 21
27.063237
 39
0
 62
0
  0
LINE
  8
default
  6
CONTINUOUS
 10
52.804952
 20
27.063237
 11
53.199911
 21
27.247410
 39
0
 62
0
  0
LINE
  8
default
  6
CONTINUOUS
 10
53.199911
 20
27.247410
 11
53.556878
 21
27.497362
 39
0
 62
0
  0
LINE
  8
default
  6
CONTINUOUS
 10
53.556878
 20
27.497362
 11
53.865022
 21
27.805504
 39
0
 62
0
  0
LINE
  8
default
  6
CONTINUOUS
 10
53.865022
 20
27.805504
 11
54.114970
 21
28.162474
 39
0
 62
0
  0
LINE
  8
default
  6
CONTINUOUS
 10
54.114970
 20
28.162474
 11
54.299140
 21
28.557421
 39
0
 62
0
  0
LINE
  8
default
  6
CONTINUOUS
 10
54.299140
 20
28.557421
 11
54.411925
 21
28.978353
 39
0
 62
0
  0
LINE
  8
default
  6
CONTINUOUS
 10
62.341294
 20
19.926016
 11
62.379272
 21
20.360137
 39
0
 62
0
  0
LINE
  8
default
  6
CONTINUOUS
 10
62.379272
 20
20.360137
 11
62.341294
 21
20.794255
 39
0
 62
0
  0
LINE
  8
default
  6
CONTINUOUS
 10
62.341294
 20
20.794255
 11
62.228505
 21
21.215184
 39
0
 62
0
  0
LINE
  8
default
  6
CONTINUOUS
 10
62.228505
 20
21.215184
 11
62.044339
 21
21.610138
 39
0
 62
0
  0
LINE
  8
default
  6
CONTINUOUS
 10
62.044339
 20
21.610138
 11
61.794378
 21
21.967105
 39
0
 62
0
  0
LINE
  8
default
  6
CONTINUOUS
 10
61.794378
 20
21.967105
 11
61.486238
 21
22.275248
 39
0
 62
0
  0
LINE
  8
default
  6
CONTINUOUS
 10
61.486238
 20
22.275248
 11
61.129271
 21
22.525200
 39
0
 62
0
  0
LINE
  8
default
  6
CONTINUOUS
 10
61.129271
 20
22.525200
 11
60.734325
 21
22.709368
 39
0
 62
0
  0
LINE
  8
default
  6
CONTINUOUS
 10
60.734325
 20
22.709368
 11
60.313391
 21
22.822157
 39
0
 62
0
  0
LINE
  8
default
  6
CONTINUOUS
 10
60.313391
 20
22.822157
 11
59.879273
 21
22.860138
 39
0
 62
0
  0
LINE
  8
default
  6
CONTINUOUS
 10
59.879273
 20
22.860138
 11
59.445151
 21
22.822157
 39
0
 62
0
  0
LINE
  8
default
  6
CONTINUOUS
 10
59.445151
 20
22.822157
 11
59.024222
 21
22.709368
 39
0
 62
0
  0
LINE
  8
default
  6
CONTINUOUS
 10
59.024222
 20
22.709368
 11
58.629272
 21
22.525200
 39
0
 62
0
  0
LINE
  8
default
  6
CONTINUOUS
 10
58.629272
 20
22.525200
 11
58.272305
 21
22.275248
 39
0
 62
0
  0
LINE
  8
default
  6
CONTINUOUS
 10
58.272305
 20
22.275248
 11
57.964160
 21
21.967105
 39
0
 62
0
  0
LINE
  8
default
  6
CONTINUOUS
 10
57.964160
 20
21.967105
 11
57.714212
 21
21.610138
 39
0
 62
0
  0
LINE
  8
default
  6
CONTINUOUS
 10
57.714212
 20
21.610138
 11
57.530042
 21
21.215184
 39
0
 62
0
  0
LINE
  8
default
  6
CONTINUOUS
 10
57.530042
 20
21.215184
 11
57.417253
 21
20.794255
 39
0
 62
0
  0
LINE
  8
default
  6
CONTINUOUS
 10
57.417253
 20
20.794255
 11
57.379270
 21
20.360137
 39
0
 62
0
  0
LINE
  8
default
  6
CONTINUOUS
 10
57.379270
 20
20.360137
 11
57.417253
 21
19.926016
 39
0
 62
0
  0
LINE
  8
default
  6
CONTINUOUS
 10
57.417253
 20
19.926016
 11
57.530042
 21
19.505087
 39
0
 62
0
  0
LINE
  8
default
  6
CONTINUOUS
 10
57.530042
 20
19.505087
 11
57.714212
 21
19.110137
 39
0
 62
0
  0
LINE
  8
default
  6
CONTINUOUS
 10
57.714212
 20
19.110137
 11
57.964160
 21
18.753168
 39
0
 62
0
  0
LINE
  8
default
  6
CONTINUOUS
 10
57.964160
 20
18.753168
 11
58.272305
 21
18.445021
 39
0
 62
0
  0
LINE
  8
default
  6
CONTINUOUS
 10
58.272305
 20
18.445021
 11
58.629272
 21
18.195072
 39
0
 62
0
  0
LINE
  8
default
  6
CONTINUOUS
 10
58.629272
 20
18.195072
 11
59.024222
 21
18.010904
 39
0
 62
0
  0
LINE
  8
default
  6
CONTINUOUS
 10
59.024222
 20
18.010904
 11
59.445151
 21
17.898115
 39
0
 62
0
  0
LINE
  8
default
  6
CONTINUOUS
 10
59.445151
 20
17.898115
 11
59.879273
 21
17.860138
 39
0
 62
0
  0
LINE
  8
default
  6
CONTINUOUS
 10
59.879273
 20
17.860138
 11
60.313391
 21
17.898115
 39
0
 62
0
  0
LINE
  8
default
  6
CONTINUOUS
 10
60.313391
 20
17.898115
 11
60.734325
 21
18.010904
 39
0
 62
0
  0
LINE
  8
default
  6
CONTINUOUS
 10
60.734325
 20
18.010904
 11
61.129271
 21
18.195072
 39
0
 62
0
  0
LINE
  8
default
  6
CONTINUOUS
 10
61.129271
 20
18.195072
 11
61.486238
 21
18.445021
 39
0
 62
0
  0
LINE
  8
default
  6
CONTINUOUS
 10
61.486238
 20
18.445021
 11
61.794378
 21
18.753168
 39
0
 62
0
  0
LINE
  8
default
  6
CONTINUOUS
 10
61.794378
 20
18.753168
 11
62.044339
 21
19.110137
 39
0
 62
0
  0
LINE
  8
default
  6
CONTINUOUS
 10
62.044339
 20
19.110137
 11
62.228505
 21
19.505087
 39
0
 62
0
  0
LINE
  8
default
  6
CONTINUOUS
 10
62.228505
 20
19.505087
 11
62.341294
 21
19.926016
 39
0
 62
0
  0
LINE
  8
default
  6
CONTINUOUS
 10
73.421701
 20
15.221062
 11
73.459680
 21
15.655182
 39
0
 62
0
  0
LINE
  8
default
  6
CONTINUOUS
 10
73.459680
 20
15.655182
 11
73.421701
 21
16.089306
 39
0
 62
0
  0
LINE
  8
default
  6
CONTINUOUS
 10
73.421701
 20
16.089306
 11
73.308908
 21
16.510234
 39
0
 62
0
  0
LINE
  8
default
  6
CONTINUOUS
 10
73.308908
 20
16.510234
 11
73.124742
 21
16.905184
 39
0
 62
0
  0
LINE
  8
default
  6
CONTINUOUS
 10
73.124742
 20
16.905184
 11
72.874785
 21
17.262153
 39
0
 62
0
  0
LINE
  8
default
  6
CONTINUOUS
 10
72.874785
 20
17.262153
 11
72.566641
 21
17.570293
 39
0
 62
0
  0
LINE
  8
default
  6
CONTINUOUS
 10
72.566641
 20
17.570293
 11
72.209678
 21
17.820248
 39
0
 62
0
  0
LINE
  8
default
  6
CONTINUOUS
 10
72.209678
 20
17.820248
 11
71.814728
 21
18.004415
 39
0
 62
0
  0
LINE
  8
default
  6
CONTINUOUS
 10
71.814728
 20
18.004415
 11
71.393799
 21
18.117204
 39
0
 62
0
  0
LINE
  8
default
  6
CONTINUOUS
 10
71.393799
 20
18.117204
 11
70.959676
 21
18.155183
 39
0
 62
0
  0
LINE
  8
default
  6
CONTINUOUS
 10
70.959676
 20
18.155183
 11
70.525558
 21
18.117204
 39
0
 62
0
  0
LINE
  8
default
  6
CONTINUOUS
 10
70.525558
 20
18.117204
 11
70.104629
 21
18.004415
 39
0
 62
0
  0
LINE
  8
default
  6
CONTINUOUS
 10
70.104629
 20
18.004415
 11
69.709679
 21
17.820248
 39
0
 62
0
  0
LINE
  8
default
  6
CONTINUOUS
 10
69.709679
 20
17.820248
 11
69.352707
 21
17.570293
 39
0
 62
0
  0
LINE
  8
default
  6
CONTINUOUS
 10
69.352707
 20
17.570293
 11
69.044563
 21
17.262153
 39
0
 62
0
  0
LINE
  8
default
  6
CONTINUOUS
 10
69.044563
 20
17.262153
 11
68.794615
 21
16.905184
 39
0
 62
0
  0
LINE
  8
default
  6
CONTINUOUS
 10
68.794615
 20
16.905184
 11
68.610445
 21
16.510234
 39
0
 62
0
  0
LINE
  8
default
  6
CONTINUOUS
 10
68.610445
 20
16.510234
 11
68.497656
 21
16.089306
 39
0
 62
0
  0
LINE
  8
default
  6
CONTINUOUS
 10
68.497656
 20
16.089306
 11
68.459677
 21
15.655182
 39
0
 62
0
  0
LINE
  8
default
  6
CONTINUOUS
 10
68.459677
 20
15.655182
 11
68.497656
 21
15.221062
 39
0
 62
0
  0
LINE
  8
default
  6
CONTINUOUS
 10
68.497656
 20
15.221062
 11
68.610445
 21
14.800132
 39
0
 62
0
  0
LINE
  8
default
  6
CONTINUOUS
 10
68.610445
 20
14.800132
 11
68.794615
 21
14.405184
 39
0
 62
0
  0
LINE
  8
default
  6
CONTINUOUS
 10
68.794615
 20
14.405184
 11
69.044563
 21
14.048213
 39
0
 62
0
  0
LINE
  8
default
  6
CONTINUOUS
 10
69.044563
 20
14.048213
 11
69.352707
 21
13.740073
 39
0
 62
0
  0
LINE
  8
default
  6
CONTINUOUS
 10
69.352707
 20
13.740073
 11
69.709679
 21
13.490121
 39
0
 62
0
  0
LINE
  8
default
  6
CONTINUOUS
 10
69.709679
 20
13.490121
 11
70.104629
 21
13.305953
 39
0
 62
0
  0
LINE
  8
default
  6
CONTINUOUS
 10
70.104629
 20
13.305953
 11
70.525558
 21
13.193165
 39
0
 62
0
  0
LINE
  8
default
  6
CONTINUOUS
 10
70.525558
 20
13.193165
 11
70.959676
 21
13.155182
 39
0
 62
0
  0
LINE
  8
default
  6
CONTINUOUS
 10
70.959676
 20
13.155182
 11
71.393799
 21
13.193165
 39
0
 62
0
  0
LINE
  8
default
  6
CONTINUOUS
 10
71.393799
 20
13.193165
 11
71.814728
 21
13.305953
 39
0
 62
0
  0
LINE
  8
default
  6
CONTINUOUS
 10
71.814728
 20
13.305953
 11
72.209678
 21
13.490121
 39
0
 62
0
  0
LINE
  8
default
  6
CONTINUOUS
 10
72.209678
 20
13.490121
 11
72.566641
 21
13.740073
 39
0
 62
0
  0
LINE
  8
default
  6
CONTINUOUS
 10
72.566641
 20
13.740073
 11
72.874785
 21
14.048213
 39
0
 62
0
  0
LINE
  8
default
  6
CONTINUOUS
 10
72.874785
 20
14.048213
 11
73.124742
 21
14.405184
 39
0
 62
0
  0
LINE
  8
default
  6
CONTINUOUS
 10
73.124742
 20
14.405184
 11
73.308908
 21
14.800132
 39
0
 62
0
  0
LINE
  8
default
  6
CONTINUOUS
 10
73.308908
 20
14.800132
 11
73.421701
 21
15.221062
 39
0
 62
0
  0
LINE
  8
default
  6
CONTINUOUS
 10
83.846310
 20
19.492019
 11
83.566201
 21
19.825845
 39
0
 62
0
  0
LINE
  8
default
  6
CONTINUOUS
 10
83.566201
 20
19.825845
 11
83.232374
 21
20.105959
 39
0
 62
0
  0
LINE
  8
default
  6
CONTINUOUS
 10
83.232374
 20
20.105959
 11
82.854979
 21
20.323849
 39
0
 62
0
  0
LINE
  8
default
  6
CONTINUOUS
 10
82.854979
 20
20.323849
 11
82.445484
 21
20.472893
 39
0
 62
0
  0
LINE
  8
default
  6
CONTINUOUS
 10
82.445484
 20
20.472893
 11
82.016322
 21
20.548565
 39
0
 62
0
  0
LINE
  8
default
  6
CONTINUOUS
 10
82.016322
 20
20.548565
 11
81.580546
 21
20.548565
 39
0
 62
0
  0
LINE
  8
default
  6
CONTINUOUS
 10
81.580546
 20
20.548565
 11
81.151384
 21
20.472893
 39
0
 62
0
  0
LINE
  8
default
  6
CONTINUOUS
 10
81.151384
 20
20.472893
 11
80.741889
 21
20.323849
 39
0
 62
0
  0
LINE
  8
default
  6
CONTINUOUS
 10
80.741889
 20
20.323849
 11
80.364494
 21
20.105959
 39
0
 62
0
  0
LINE
  8
default
  6
CONTINUOUS
 10
80.364494
 20
20.105959
 11
80.030667
 21
19.825845
 39
0
 62
0
  0
LINE
  8
default
  6
CONTINUOUS
 10
80.030667
 20
19.825845
 11
79.750558
 21
19.492019
 39
0
 62
0
  0
LINE
  8
default
  6
CONTINUOUS
 10
79.750558
 20
19.492019
 11
79.532661
 21
19.114621
 39
0
 62
0
  0
LINE
  8
default
  6
CONTINUOUS
 10
79.532661
 20
19.114621
 11
79.383617
 21
18.705126
 39
0
 62
0
  0
LINE
  8
default
  6
CONTINUOUS
 10
79.383617
 20
18.705126
 11
79.307940
 21
18.275968
 39
0
 62
0
  0
LINE
  8
default
  6
CONTINUOUS
 10
79.307940
 20
18.275968
 11
79.307940
 21
17.840186
 39
0
 62
0
  0
LINE
  8
default
  6
CONTINUOUS
 10
79.307940
 20
17.840186
 11
79.383617
 21
17.411031
 39
0
 62
0
  0
LINE
  8
default
  6
CONTINUOUS
 10
79.383617
 20
17.411031
 11
79.532661
 21
17.001533
 39
0
 62
0
  0
LINE
  8
default
  6
CONTINUOUS
 10
79.532661
 20
17.001533
 11
79.750558
 21
16.624137
 39
0
 62
0
  0
LINE
  8
default
  6
CONTINUOUS
 10
79.750558
 20
16.624137
 11
80.030667
 21
16.290312
 39
0
 62
0
  0
LINE
  8
default
  6
CONTINUOUS
 10
80.030667
 20
16.290312
 11
80.364494
 21
16.010198
 39
0
 62
0
  0
LINE
  8
default
  6
CONTINUOUS
 10
80.364494
 20
16.010198
 11
80.741889
 21
15.792307
 39
0
 62
0
  0
LINE
  8
default
  6
CONTINUOUS
 10
80.741889
 20
15.792307
 11
81.151384
 21
15.643263
 39
0
 62
0
  0
LINE
  8
default
  6
CONTINUOUS
 10
81.151384
 20
15.643263
 11
81.580546
 21
15.567592
 39
0
 62
0
  0
LINE
  8
default
  6
CONTINUOUS
 10
81.580546
 20
15.567592
 11
82.016322
 21
15.567592
 39
0
 62
0
  0
LINE
  8
default
  6
CONTINUOUS
 10
82.016322
 20
15.567592
 11
82.445484
 21
15.643263
 39
0
 62
0
  0
LINE
  8
default
  6
CONTINUOUS
 10
82.445484
 20
15.643263
 11
82.854979
 21
15.792307
 39
0
 62
0
  0
LINE
  8
default
  6
CONTINUOUS
 10
82.854979
 20
15.792307
 11
83.232374
 21
16.010198
 39
0
 62
0
  0
LINE
  8
default
  6
CONTINUOUS
 10
83.232374
 20
16.010198
 11
83.566201
 21
16.290312
 39
0
 62
0
  0
LINE
  8
default
  6
CONTINUOUS
 10
83.566201
 20
16.290312
 11
83.846310
 21
16.624137
 39
0
 62
0
  0
LINE
  8
default
  6
CONTINUOUS
 10
83.846310
 20
16.624137
 11
84.064198
 21
17.001533
 39
0
 62
0
  0
LINE
  8
default
  6
CONTINUOUS
 10
84.064198
 20
17.001533
 11
84.213251
 21
17.411031
 39
0
 62
0
  0
LINE
  8
default
  6
CONTINUOUS
 10
84.213251
 20
17.411031
 11
84.288919
 21
17.840186
 39
0
 62
0
  0
LINE
  8
default
  6
CONTINUOUS
 10
84.288919
 20
17.840186
 11
84.288919
 21
18.275968
 39
0
 62
0
  0
LINE
  8
default
  6
CONTINUOUS
 10
84.288919
 20
18.275968
 11
84.213251
 21
18.705126
 39
0
 62
0
  0
LINE
  8
default
  6
CONTINUOUS
 10
84.213251
 20
18.705126
 11
84.064198
 21
19.114621
 39
0
 62
0
  0
LINE
  8
default
  6
CONTINUOUS
 10
84.064198
 20
19.114621
 11
83.846310
 21
19.492019
 39
0
 62
0
  0
LINE
  8
default
  6
CONTINUOUS
 10
88.197604
 20
29.883351
 11
87.763482
 21
29.921332
 39
0
 62
0
  0
LINE
  8
default
  6
CONTINUOUS
 10
87.763482
 20
29.921332
 11
87.329359
 21
29.883351
 39
0
 62
0
  0
LINE
  8
default
  6
CONTINUOUS
 10
87.329359
 20
29.883351
 11
86.908430
 21
29.770567
 39
0
 62
0
  0
LINE
  8
default
  6
CONTINUOUS
 10
86.908430
 20
29.770567
 11
86.513485
 21
29.586396
 39
0
 62
0
  0
LINE
  8
default
  6
CONTINUOUS
 10
86.513485
 20
29.586396
 11
86.156509
 21
29.336446
 39
0
 62
0
  0
LINE
  8
default
  6
CONTINUOUS
 10
86.156509
 20
29.336446
 11
85.848377
 21
29.028302
 39
0
 62
0
  0
LINE
  8
default
  6
CONTINUOUS
 10
85.848377
 20
29.028302
 11
85.598416
 21
28.671335
 39
0
 62
0
  0
LINE
  8
default
  6
CONTINUOUS
 10
85.598416
 20
28.671335
 11
85.414255
 21
28.276385
 39
0
 62
0
  0
LINE
  8
default
  6
CONTINUOUS
 10
85.414255
 20
28.276385
 11
85.301457
 21
27.855455
 39
0
 62
0
  0
LINE
  8
default
  6
CONTINUOUS
 10
85.301457
 20
27.855455
 11
85.263479
 21
27.421335
 39
0
 62
0
  0
LINE
  8
default
  6
CONTINUOUS
 10
85.263479
 20
27.421335
 11
85.301457
 21
26.987215
 39
0
 62
0
  0
LINE
  8
default
  6
CONTINUOUS
 10
85.301457
 20
26.987215
 11
85.414255
 21
26.566281
 39
0
 62
0
  0
LINE
  8
default
  6
CONTINUOUS
 10
85.414255
 20
26.566281
 11
85.598416
 21
26.171336
 39
0
 62
0
  0
LINE
  8
default
  6
CONTINUOUS
 10
85.598416
 20
26.171336
 11
85.848377
 21
25.814364
 39
0
 62
0
  0
LINE
  8
default
  6
CONTINUOUS
 10
85.848377
 20
25.814364
 11
86.156509
 21
25.506224
 39
0
 62
0
  0
LINE
  8
default
  6
CONTINUOUS
 10
86.156509
 20
25.506224
 11
86.513485
 21
25.256272
 39
0
 62
0
  0
LINE
  8
default
  6
CONTINUOUS
 10
86.513485
 20
25.256272
 11
86.908430
 21
25.072103
 39
0
 62
0
  0
LINE
  8
default
  6
CONTINUOUS
 10
86.908430
 20
25.072103
 11
87.329359
 21
24.959317
 39
0
 62
0
  0
LINE
  8
default
  6
CONTINUOUS
 10
87.329359
 20
24.959317
 11
87.763482
 21
24.921334
 39
0
 62
0
  0
LINE
  8
default
  6
CONTINUOUS
 10
87.763482
 20
24.921334
 11
88.197604
 21
24.959317
 39
0
 62
0
  0
LINE
  8
default
  6
CONTINUOUS
 10
88.197604
 20
24.959317
 11
88.618534
 21
25.072103
 39
0
 62
0
  0
LINE
  8
default
  6
CONTINUOUS
 10
88.618534
 20
25.072103
 11
89.013479
 21
25.256272
 39
0
 62
0
  0
LINE
  8
default
  6
CONTINUOUS
 10
89.013479
 20
25.256272
 11
89.370455
 21
25.506224
 39
0
 62
0
  0
LINE
  8
default
  6
CONTINUOUS
 10
89.370455
 20
25.506224
 11
89.678595
 21
25.814364
 39
0
 62
0
  0
LINE
  8
default
  6
CONTINUOUS
 10
89.678595
 20
25.814364
 11
89.928539
 21
26.171336
 39
0
 62
0
  0
LINE
  8
default
  6
CONTINUOUS
 10
89.928539
 20
26.171336
 11
90.112718
 21
26.566281
 39
0
 62
0
  0
LINE
  8
default
  6
CONTINUOUS
 10
90.112718
 20
26.566281
 11
90.225498
 21
26.987215
 39
0
 62
0
  0
LINE
  8
default
  6
CONTINUOUS
 10
90.225498
 20
26.987215
 11
90.263477
 21
27.421335
 39
0
 62
0
  0
LINE
  8
default
  6
CONTINUOUS
 10
90.263477
 20
27.421335
 11
90.225498
 21
27.855455
 39
0
 62
0
  0
LINE
  8
default
  6
CONTINUOUS
 10
90.225498
 20
27.855455
 11
90.112718
 21
28.276385
 39
0
 62
0
  0
LINE
  8
default
  6
CONTINUOUS
 10
90.112718
 20
28.276385
 11
89.928539
 21
28.671335
 39
0
 62
0
  0
LINE
  8
default
  6
CONTINUOUS
 10
89.928539
 20
28.671335
 11
89.678595
 21
29.028302
 39
0
 62
0
  0
LINE
  8
default
  6
CONTINUOUS
 10
89.678595
 20
29.028302
 11
89.370455
 21
29.336446
 39
0
 62
0
  0
LINE
  8
default
  6
CONTINUOUS
 10
89.370455
 20
29.336446
 11
89.013479
 21
29.586396
 39
0
 62
0
  0
LINE
  8
default
  6
CONTINUOUS
 10
89.013479
 20
29.586396
 11
88.618534
 21
29.770567
 39
0
 62
0
  0
LINE
  8
default
  6
CONTINUOUS
 10
88.618534
 20
29.770567
 11
88.197604
 21
29.883351
 39
0
 62
0
  0
LINE
  8
default
  6
CONTINUOUS
 10
83.926641
 20
40.307971
 11
83.592814
 21
40.027857
 39
0
 62
0
  0
LINE
  8
default
  6
CONTINUOUS
 10
83.592814
 20
40.027857
 11
83.312696
 21
39.694031
 39
0
 62
0
  0
LINE
  8
default
  6
CONTINUOUS
 10
83.312696
 20
39.694031
 11
83.094808
 21
39.316635
 39
0
 62
0
  0
LINE
  8
default
  6
CONTINUOUS
 10
83.094808
 20
39.316635
 11
82.945764
 21
38.907140
 39
0
 62
0
  0
LINE
  8
default
  6
CONTINUOUS
 10
82.945764
 20
38.907140
 11
82.870096
 21
38.477983
 39
0
 62
0
  0
LINE
  8
default
  6
CONTINUOUS
 10
82.870096
 20
38.477983
 11
82.870096
 21
38.042202
 39
0
 62
0
  0
LINE
  8
default
  6
CONTINUOUS
 10
82.870096
 20
38.042202
 11
82.945764
 21
37.613045
 39
0
 62
0
  0
LINE
  8
default
  6
CONTINUOUS
 10
82.945764
 20
37.613045
 11
83.094808
 21
37.203546
 39
0
 62
0
  0
LINE
  8
default
  6
CONTINUOUS
 10
83.094808
 20
37.203546
 11
83.312696
 21
36.826150
 39
0
 62
0
  0
LINE
  8
default
  6
CONTINUOUS
 10
83.312696
 20
36.826150
 11
83.592814
 21
36.492324
 39
0
 62
0
  0
LINE
  8
default
  6
CONTINUOUS
 10
83.592814
 20
36.492324
 11
83.926641
 21
36.212210
 39
0
 62
0
  0
LINE
  8
default
  6
CONTINUOUS
 10
83.926641
 20
36.212210
 11
84.304028
 21
35.994320
 39
0
 62
0
  0
LINE
  8
default
  6
CONTINUOUS
 10
84.304028
 20
35.994320
 11
84.713531
 21
35.845276
 39
0
 62
0
  0
LINE
  8
default
  6
CONTINUOUS
 10
84.713531
 20
35.845276
 11
85.142693
 21
35.769604
 39
0
 62
0
  0
LINE
  8
default
  6
CONTINUOUS
 10
85.142693
 20
35.769604
 11
85.578469
 21
35.769604
 39
0
 62
0
  0
LINE
  8
default
  6
CONTINUOUS
 10
85.578469
 20
35.769604
 11
86.007631
 21
35.845276
 39
0
 62
0
  0
LINE
  8
default
  6
CONTINUOUS
 10
86.007631
 20
35.845276
 11
86.417126
 21
35.994320
 39
0
 62
0
  0
LINE
  8
default
  6
CONTINUOUS
 10
86.417126
 20
35.994320
 11
86.794521
 21
36.212210
 39
0
 62
0
  0
LINE
  8
default
  6
CONTINUOUS
 10
86.794521
 20
36.212210
 11
87.128348
 21
36.492324
 39
0
 62
0
  0
LINE
  8
default
  6
CONTINUOUS
 10
87.128348
 20
36.492324
 11
87.408466
 21
36.826150
 39
0
 62
0
  0
LINE
  8
default
  6
CONTINUOUS
 10
87.408466
 20
36.826150
 11
87.626354
 21
37.203546
 39
0
 62
0
  0
LINE
  8
default
  6
CONTINUOUS
 10
87.626354
 20
37.203546
 11
87.775398
 21
37.613045
 39
0
 62
0
  0
LINE
  8
default
  6
CONTINUOUS
 10
87.775398
 20
37.613045
 11
87.851066
 21
38.042202
 39
0
 62
0
  0
LINE
  8
default
  6
CONTINUOUS
 10
87.851066
 20
38.042202
 11
87.851066
 21
38.477983
 39
0
 62
0
  0
LINE
  8
default
  6
CONTINUOUS
 10
87.851066
 20
38.477983
 11
87.775398
 21
38.907140
 39
0
 62
0
  0
LINE
  8
default
  6
CONTINUOUS
 10
87.775398
 20
38.907140
 11
87.626354
 21
39.316635
 39
0
 62
0
  0
LINE
  8
default
  6
CONTINUOUS
 10
87.626354
 20
39.316635
 11
87.408466
 21
39.694031
 39
0
 62
0
  0
LINE
  8
default
  6
CONTINUOUS
 10
87.408466
 20
39.694031
 11
87.128348
 21
40.027857
 39
0
 62
0
  0
LINE
  8
default
  6
CONTINUOUS
 10
87.128348
 20
40.027857
 11
86.794521
 21
40.307971
 39
0
 62
0
  0
LINE
  8
default
  6
CONTINUOUS
 10
86.794521
 20
40.307971
 11
86.417126
 21
40.525859
 39
0
 62
0
  0
LINE
  8
default
  6
CONTINUOUS
 10
86.417126
 20
40.525859
 11
86.007631
 21
40.674903
 39
0
 62
0
  0
LINE
  8
default
  6
CONTINUOUS
 10
86.007631
 20
40.674903
 11
85.578469
 21
40.750575
 39
0
 62
0
  0
LINE
  8
default
  6
CONTINUOUS
 10
85.578469
 20
40.750575
 11
85.142693
 21
40.750575
 39
0
 62
0
  0
LINE
  8
default
  6
CONTINUOUS
 10
85.142693
 20
40.750575
 11
84.713531
 21
40.674903
 39
0
 62
0
  0
LINE
  8
default
  6
CONTINUOUS
 10
84.713531
 20
40.674903
 11
84.304028
 21
40.525859
 39
0
 62
0
  0
LINE
  8
default
  6
CONTINUOUS
 10
84.304028
 20
40.525859
 11
83.926641
 21
40.307971
 39
0
 62
0
  0
LINE
  8
default
  6
CONTINUOUS
 10
73.535304
 20
44.659261
 11
73.497326
 21
44.225139
 39
0
 62
0
  0
LINE
  8
default
  6
CONTINUOUS
 10
73.497326
 20
44.225139
 11
73.535304
 21
43.791020
 39
0
 62
0
  0
LINE
  8
default
  6
CONTINUOUS
 10
73.535304
 20
43.791020
 11
73.648093
 21
43.370087
 39
0
 62
0
  0
LINE
  8
default
  6
CONTINUOUS
 10
73.648093
 20
43.370087
 11
73.832263
 21
42.975141
 39
0
 62
0
  0
LINE
  8
default
  6
CONTINUOUS
 10
73.832263
 20
42.975141
 11
74.082216
 21
42.618165
 39
0
 62
0
  0
LINE
  8
default
  6
CONTINUOUS
 10
74.082216
 20
42.618165
 11
74.390356
 21
42.310029
 39
0
 62
0
  0
LINE
  8
default
  6
CONTINUOUS
 10
74.390356
 20
42.310029
 11
74.747332
 21
42.060073
 39
0
 62
0
  0
LINE
  8
default
  6
CONTINUOUS
 10
74.747332
 20
42.060073
 11
75.142277
 21
41.875907
 39
0
 62
0
  0
LINE
  8
default
  6
CONTINUOUS
 10
75.142277
 20
41.875907
 11
75.563207
 21
41.763118
 39
0
 62
0
  0
LINE
  8
default
  6
CONTINUOUS
 10
75.563207
 20
41.763118
 11
75.997329
 21
41.725140
 39
0
 62
0
  0
LINE
  8
default
  6
CONTINUOUS
 10
75.997329
 20
41.725140
 11
76.431451
 21
41.763118
 39
0
 62
0
  0
LINE
  8
default
  6
CONTINUOUS
 10
76.431451
 20
41.763118
 11
76.852381
 21
41.875907
 39
0
 62
0
  0
LINE
  8
default
  6
CONTINUOUS
 10
76.852381
 20
41.875907
 11
77.247326
 21
42.060073
 39
0
 62
0
  0
LINE
  8
default
  6
CONTINUOUS
 10
77.247326
 20
42.060073
 11
77.604302
 21
42.310029
 39
0
 62
0
  0
LINE
  8
default
  6
CONTINUOUS
 10
77.604302
 20
42.310029
 11
77.912434
 21
42.618165
 39
0
 62
0
  0
LINE
  8
default
  6
CONTINUOUS
 10
77.912434
 20
42.618165
 11
78.162395
 21
42.975141
 39
0
 62
0
  0
LINE
  8
default
  6
CONTINUOUS
 10
78.162395
 20
42.975141
 11
78.346556
 21
43.370087
 39
0
 62
0
  0
LINE
  8
default
  6
CONTINUOUS
 10
78.346556
 20
43.370087
 11
78.459354
 21
43.791020
 39
0
 62
0
  0
LINE
  8
default
  6
CONTINUOUS
 10
78.459354
 20
43.791020
 11
78.497332
 21
44.225139
 39
0
 62
0
  0
LINE
  8
default
  6
CONTINUOUS
 10
78.497332
 20
44.225139
 11
78.459354
 21
44.659261
 39
0
 62
0
  0
LINE
  8
default
  6
CONTINUOUS
 10
78.459354
 20
44.659261
 11
78.346556
 21
45.080190
 39
0
 62
0
  0
LINE
  8
default
  6
CONTINUOUS
 10
78.346556
 20
45.080190
 11
78.162395
 21
45.475140
 39
0
 62
0
  0
LINE
  8
default
  6
CONTINUOUS
 10
78.162395
 20
45.475140
 11
77.912434
 21
45.832107
 39
0
 62
0
  0
LINE
  8
default
  6
CONTINUOUS
 10
77.912434
 20
45.832107
 11
77.604302
 21
46.140252
 39
0
 62
0
  0
LINE
  8
default
  6
CONTINUOUS
 10
77.604302
 20
46.140252
 11
77.247326
 21
46.390200
 39
0
 62
0
  0
LINE
  8
default
  6
CONTINUOUS
 10
77.247326
 20
46.390200
 11
76.852381
 21
46.574370
 39
0
 62
0
  0
LINE
  8
default
  6
CONTINUOUS
 10
76.852381
 20
46.574370
 11
76.431451
 21
46.687155
 39
0
 62
0
  0
LINE
  8
default
  6
CONTINUOUS
 10
76.431451
 20
46.687155
 11
75.997329
 21
46.725138
 39
0
 62
0
  0
LINE
  8
default
  6
CONTINUOUS
 10
75.997329
 20
46.725138
 11
75.563207
 21
46.687155
 39
0
 62
0
  0
LINE
  8
default
  6
CONTINUOUS
 10
75.563207
 20
46.687155
 11
75.142277
 21
46.574370
 39
0
 62
0
  0
LINE
  8
default
  6
CONTINUOUS
 10
75.142277
 20
46.574370
 11
74.747332
 21
46.390200
 39
0
 62
0
  0
LINE
  8
default
  6
CONTINUOUS
 10
74.747332
 20
46.390200
 11
74.390356
 21
46.140252
 39
0
 62
0
  0
LINE
  8
default
  6
CONTINUOUS
 10
74.390356
 20
46.140252
 11
74.082216
 21
45.832107
 39
0
 62
0
  0
LINE
  8
default
  6
CONTINUOUS
 10
74.082216
 20
45.832107
 11
73.832263
 21
45.475140
 39
0
 62
0
  0
LINE
  8
default
  6
CONTINUOUS
 10
73.832263
 20
45.475140
 11
73.648093
 21
45.080190
 39
0
 62
0
  0
LINE
  8
default
  6
CONTINUOUS
 10
73.648093
 20
45.080190
 11
73.535304
 21
44.659261
 39
0
 62
0
  0
LINE
  8
default
  6
CONTINUOUS
 10
62.220985
 20
56.059392
 11
62.183007
 21
55.625269
 39
0
 62
0
  0
LINE
  8
default
  6
CONTINUOUS
 10
62.183007
 20
55.625269
 11
62.220985
 21
55.191151
 39
0
 62
0
  0
LINE
  8
default
  6
CONTINUOUS
 10
62.220985
 20
55.191151
 11
62.333774
 21
54.770218
 39
0
 62
0
  0
LINE
  8
default
  6
CONTINUOUS
 10
62.333774
 20
54.770218
 11
62.517940
 21
54.375272
 39
0
 62
0
  0
LINE
  8
default
  6
CONTINUOUS
 10
62.517940
 20
54.375272
 11
62.767893
 21
54.018301
 39
0
 62
0
  0
LINE
  8
default
  6
CONTINUOUS
 10
62.767893
 20
54.018301
 11
63.076037
 21
53.710160
 39
0
 62
0
  0
LINE
  8
default
  6
CONTINUOUS
 10
63.076037
 20
53.710160
 11
63.433000
 21
53.460204
 39
0
 62
0
  0
LINE
  8
default
  6
CONTINUOUS
 10
63.433000
 20
53.460204
 11
63.827959
 21
53.276038
 39
0
 62
0
  0
LINE
  8
default
  6
CONTINUOUS
 10
63.827959
 20
53.276038
 11
64.248883
 21
53.163249
 39
0
 62
0
  0
LINE
  8
default
  6
CONTINUOUS
 10
64.248883
 20
53.163249
 11
64.683006
 21
53.125270
 39
0
 62
0
  0
LINE
  8
default
  6
CONTINUOUS
 10
64.683006
 20
53.125270
 11
65.117124
 21
53.163249
 39
0
 62
0
  0
LINE
  8
default
  6
CONTINUOUS
 10
65.117124
 20
53.163249
 11
65.538053
 21
53.276038
 39
0
 62
0
  0
LINE
  8
default
  6
CONTINUOUS
 10
65.538053
 20
53.276038
 11
65.933008
 21
53.460204
 39
0
 62
0
  0
LINE
  8
default
  6
CONTINUOUS
 10
65.933008
 20
53.460204
 11
66.289979
 21
53.710160
 39
0
 62
0
  0
LINE
  8
default
  6
CONTINUOUS
 10
66.289979
 20
53.710160
 11
66.598115
 21
54.018301
 39
0
 62
0
  0
LINE
  8
default
  6
CONTINUOUS
 10
66.598115
 20
54.018301
 11
66.848067
 21
54.375272
 39
0
 62
0
  0
LINE
  8
default
  6
CONTINUOUS
 10
66.848067
 20
54.375272
 11
67.032233
 21
54.770218
 39
0
 62
0
  0
LINE
  8
default
  6
CONTINUOUS
 10
67.032233
 20
54.770218
 11
67.145027
 21
55.191151
 39
0
 62
0
  0
LINE
  8
default
  6
CONTINUOUS
 10
67.145027
 20
55.191151
 11
67.183005
 21
55.625269
 39
0
 62
0
  0
LINE
  8
default
  6
CONTINUOUS
 10
67.183005
 20
55.625269
 11
67.145027
 21
56.059392
 39
0
 62
0
  0
LINE
  8
default
  6
CONTINUOUS
 10
67.145027
 20
56.059392
 11
67.032233
 21
56.480321
 39
0
 62
0
  0
LINE
  8
default
  6
CONTINUOUS
 10
67.032233
 20
56.480321
 11
66.848067
 21
56.875271
 39
0
 62
0
  0
LINE
  8
default
  6
CONTINUOUS
 10
66.848067
 20
56.875271
 11
66.598115
 21
57.232238
 39
0
 62
0
  0
LINE
  8
default
  6
CONTINUOUS
 10
66.598115
 20
57.232238
 11
66.289979
 21
57.540383
 39
0
 62
0
  0
LINE
  8
default
  6
CONTINUOUS
 10
66.289979
 20
57.540383
 11
65.933008
 21
57.790331
 39
0
 62
0
  0
LINE
  8
default
  6
CONTINUOUS
 10
65.933008
 20
57.790331
 11
65.538053
 21
57.974501
 39
0
 62
0
  0
LINE
  8
default
  6
CONTINUOUS
 10
65.538053
 20
57.974501
 11
65.117124
 21
58.087286
 39
0
 62
0
  0
LINE
  8
default
  6
CONTINUOUS
 10
65.117124
 20
58.087286
 11
64.683006
 21
58.125268
 39
0
 62
0
  0
LINE
  8
default
  6
CONTINUOUS
 10
64.683006
 20
58.125268
 11
64.248883
 21
58.087286
 39
0
 62
0
  0
LINE
  8
default
  6
CONTINUOUS
 10
64.248883
 20
58.087286
 11
63.827959
 21
57.974501
 39
0
 62
0
  0
LINE
  8
default
  6
CONTINUOUS
 10
63.827959
 20
57.974501
 11
63.433000
 21
57.790331
 39
0
 62
0
  0
LINE
  8
default
  6
CONTINUOUS
 10
63.433000
 20
57.790331
 11
63.076037
 21
57.540383
 39
0
 62
0
  0
LINE
  8
default
  6
CONTINUOUS
 10
63.076037
 20
57.540383
 11
62.767893
 21
57.232238
 39
0
 62
0
  0
LINE
  8
default
  6
CONTINUOUS
 10
62.767893
 20
57.232238
 11
62.517940
 21
56.875271
 39
0
 62
0
  0
LINE
  8
default
  6
CONTINUOUS
 10
62.517940
 20
56.875271
 11
62.333774
 21
56.480321
 39
0
 62
0
  0
LINE
  8
default
  6
CONTINUOUS
 10
62.333774
 20
56.480321
 11
62.220985
 21
56.059392
 39
0
 62
0
  0
LINE
  8
default
  6
CONTINUOUS
 10
64.043196
 20
47.839914
 11
64.005217
 21
47.405796
 39
0
 62
0
  0
LINE
  8
default
  6
CONTINUOUS
 10
64.005217
 20
47.405796
 11
64.043196
 21
46.971673
 39
0
 62
0
  0
LINE
  8
default
  6
CONTINUOUS
 10
64.043196
 20
46.971673
 11
64.155989
 21
46.550744
 39
0
 62
0
  0
LINE
  8
default
  6
CONTINUOUS
 10
64.155989
 20
46.550744
 11
64.340155
 21
46.155790
 39
0
 62
0
  0
LINE
  8
default
  6
CONTINUOUS
 10
64.340155
 20
46.155790
 11
64.590112
 21
45.798827
 39
0
 62
0
  0
LINE
  8
default
  6
CONTINUOUS
 10
64.590112
 20
45.798827
 11
64.898252
 21
45.490678
 39
0
 62
0
  0
LINE
  8
default
  6
CONTINUOUS
 10
64.898252
 20
45.490678
 11
65.255219
 21
45.240730
 39
0
 62
0
  0
LINE
  8
default
  6
CONTINUOUS
 10
65.255219
 20
45.240730
 11
65.650169
 21
45.056564
 39
0
 62
0
  0
LINE
  8
default
  6
CONTINUOUS
 10
65.650169
 20
45.056564
 11
66.071098
 21
44.943775
 39
0
 62
0
  0
LINE
  8
default
  6
CONTINUOUS
 10
66.071098
 20
44.943775
 11
66.505216
 21
44.905797
 39
0
 62
0
  0
LINE
  8
default
  6
CONTINUOUS
 10
66.505216
 20
44.905797
 11
66.939339
 21
44.943775
 39
0
 62
0
  0
LINE
  8
default
  6
CONTINUOUS
 10
66.939339
 20
44.943775
 11
67.360268
 21
45.056564
 39
0
 62
0
  0
LINE
  8
default
  6
CONTINUOUS
 10
67.360268
 20
45.056564
 11
67.755218
 21
45.240730
 39
0
 62
0
  0
LINE
  8
default
  6
CONTINUOUS
 10
67.755218
 20
45.240730
 11
68.112189
 21
45.490678
 39
0
 62
0
  0
LINE
  8
default
  6
CONTINUOUS
 10
68.112189
 20
45.490678
 11
68.420334
 21
45.798827
 39
0
 62
0
  0
LINE
  8
default
  6
CONTINUOUS
 10
68.420334
 20
45.798827
 11
68.670282
 21
46.155790
 39
0
 62
0
  0
LINE
  8
default
  6
CONTINUOUS
 10
68.670282
 20
46.155790
 11
68.854452
 21
46.550744
 39
0
 62
0
  0
LINE
  8
default
  6
CONTINUOUS
 10
68.854452
 20
46.550744
 11
68.967237
 21
46.971673
 39
0
 62
0
  0
LINE
  8
default
  6
CONTINUOUS
 10
68.967237
 20
46.971673
 11
69.005220
 21
47.405796
 39
0
 62
0
  0
LINE
  8
default
  6
CONTINUOUS
 10
69.005220
 20
47.405796
 11
68.967237
 21
47.839914
 39
0
 62
0
  0
LINE
  8
default
  6
CONTINUOUS
 10
68.967237
 20
47.839914
 11
68.854452
 21
48.260839
 39
0
 62
0
  0
LINE
  8
default
  6
CONTINUOUS
 10
68.854452
 20
48.260839
 11
68.670282
 21
48.655798
 39
0
 62
0
  0
LINE
  8
default
  6
CONTINUOUS
 10
68.670282
 20
48.655798
 11
68.420334
 21
49.012765
 39
0
 62
0
  0
LINE
  8
default
  6
CONTINUOUS
 10
68.420334
 20
49.012765
 11
68.112189
 21
49.320909
 39
0
 62
0
  0
LINE
  8
default
  6
CONTINUOUS
 10
68.112189
 20
49.320909
 11
67.755218
 21
49.570857
 39
0
 62
0
  0
LINE
  8
default
  6
CONTINUOUS
 10
67.755218
 20
49.570857
 11
67.360268
 21
49.755027
 39
0
 62
0
  0
LINE
  8
default
  6
CONTINUOUS
 10
67.360268
 20
49.755027
 11
66.939339
 21
49.867812
 39
0
 62
0
  0
LINE
  8
default
  6
CONTINUOUS
 10
66.939339
 20
49.867812
 11
66.505216
 21
49.905795
 39
0
 62
0
  0
LINE
  8
default
  6
CONTINUOUS
 10
66.505216
 20
49.905795
 11
66.071098
 21
49.867812
 39
0
 62
0
  0
LINE
  8
default
  6
CONTINUOUS
 10
66.071098
 20
49.867812
 11
65.650169
 21
49.755027
 39
0
 62
0
  0
LINE
  8
default
  6
CONTINUOUS
 10
65.650169
 20
49.755027
 11
65.255219
 21
49.570857
 39
0
 62
0
  0
LINE
  8
default
  6
CONTINUOUS
 10
65.255219
 20
49.570857
 11
64.898252
 21
49.320909
 39
0
 62
0
  0
LINE
  8
default
  6
CONTINUOUS
 10
64.898252
 20
49.320909
 11
64.590112
 21
49.012765
 39
0
 62
0
  0
LINE
  8
default
  6
CONTINUOUS
 10
64.590112
 20
49.012765
 11
64.340155
 21
48.655798
 39
0
 62
0
  0
LINE
  8
default
  6
CONTINUOUS
 10
64.340155
 20
48.655798
 11
64.155989
 21
48.260839
 39
0
 62
0
  0
LINE
  8
default
  6
CONTINUOUS
 10
64.155989
 20
48.260839
 11
64.043196
 21
47.839914
 39
0
 62
0
  0
LINE
  8
default
  6
CONTINUOUS
 10
57.569796
 20
49.222066
 11
58.622653
 21
46.174018
 39
0
 62
0
  0
LINE
  8
default
  6
CONTINUOUS
 10
58.622653
 20
46.174018
 11
60.188800
 21
43.355100
 39
0
 62
0
  0
LINE
  8
default
  6
CONTINUOUS
 10
60.188800
 20
43.355100
 11
62.220653
 21
40.850976
 39
0
 62
0
  0
LINE
  8
default
  6
CONTINUOUS
 10
62.220653
 20
40.850976
 11
64.656480
 21
38.737716
 39
0
 62
0
  0
LINE
  8
default
  6
CONTINUOUS
 10
64.656480
 20
38.737716
 11
67.422257
 21
37.079541
 39
0
 62
0
  0
LINE
  8
default
  6
CONTINUOUS
 10
67.422257
 20
37.079541
 11
70.040632
 21
36.043925
 39
0
 62
0
  0
LINE
  8
default
  6
CONTINUOUS
 10
72.262039
 20
23.041242
 11
73.478507
 21
22.934813
 39
0
 62
0
  0
LINE
  8
default
  6
CONTINUOUS
 10
73.478507
 20
22.934813
 11
74.694979
 21
23.041242
 39
0
 62
0
  0
LINE
  8
default
  6
CONTINUOUS
 10
74.694979
 20
23.041242
 11
75.874470
 21
23.357291
 39
0
 62
0
  0
LINE
  8
default
  6
CONTINUOUS
 10
75.874470
 20
23.357291
 11
76.981180
 21
23.873354
 39
0
 62
0
  0
LINE
  8
default
  6
CONTINUOUS
 10
76.981180
 20
23.873354
 11
77.981461
 21
24.573752
 39
0
 62
0
  0
LINE
  8
default
  6
CONTINUOUS
 10
77.981461
 20
24.573752
 11
78.844921
 21
25.437213
 39
0
 62
0
  0
LINE
  8
default
  6
CONTINUOUS
 10
78.844921
 20
25.437213
 11
79.545321
 21
26.437490
 39
0
 62
0
  0
LINE
  8
default
  6
CONTINUOUS
 10
79.545321
 20
26.437490
 11
80.061375
 21
27.544192
 39
0
 62
0
  0
LINE
  8
default
  6
CONTINUOUS
 10
80.061375
 20
27.544192
 11
80.377424
 21
28.723698
 39
0
 62
0
  0
LINE
  8
default
  6
CONTINUOUS
 10
80.377424
 20
28.723698
 11
80.483853
 21
29.940164
 39
0
 62
0
  0
LINE
  8
default
  6
CONTINUOUS
 10
80.483853
 20
29.940164
 11
80.377424
 21
31.156629
 39
0
 62
0
  0
LINE
  8
default
  6
CONTINUOUS
 10
80.377424
 20
31.156629
 11
80.061375
 21
32.336135
 39
0
 62
0
  0
LINE
  8
default
  6
CONTINUOUS
 10
80.061375
 20
32.336135
 11
79.545321
 21
33.442837
 39
0
 62
0
  0
LINE
  8
default
  6
CONTINUOUS
 10
79.545321
 20
33.442837
 11
78.844921
 21
34.443116
 39
0
 62
0
  0
LINE
  8
default
  6
CONTINUOUS
 10
78.844921
 20
34.443116
 11
77.981461
 21
35.306571
 39
0
 62
0
  0
LINE
  8
default
  6
CONTINUOUS
 10
77.981461
 20
35.306571
 11
76.981180
 21
36.006973
 39
0
 62
0
  0
LINE
  8
default
  6
CONTINUOUS
 10
76.981180
 20
36.006973
 11
75.874470
 21
36.523036
 39
0
 62
0
  0
LINE
  8
default
  6
CONTINUOUS
 10
75.874470
 20
36.523036
 11
74.694979
 21
36.839085
 39
0
 62
0
  0
LINE
  8
default
  6
CONTINUOUS
 10
74.694979
 20
36.839085
 11
73.478507
 21
36.945510
 39
0
 62
0
  0
LINE
  8
default
  6
CONTINUOUS
 10
73.478507
 20
36.945510
 11
72.262039
 21
36.839085
 39
0
 62
0
  0
LINE
  8
default
  6
CONTINUOUS
 10
72.262039
 20
36.839085
 11
71.082535
 21
36.523036
 39
0
 62
0
  0
LINE
  8
default
  6
CONTINUOUS
 10
71.082535
 20
36.523036
 11
70.040632
 21
36.043930
 39
0
 62
0
  0
LINE
  8
default
  6
CONTINUOUS
 10
59.956459
 20
57.443950
 11
57.540330
 21
54.489540
 39
0
 62
0
  0
LINE
  8
default
  6
CONTINUOUS
 10
57.540330
 20
54.489540
 11
55.673943
 21
51.160455
 39
0
 62
0
  0
LINE
  8
default
  6
CONTINUOUS
 10
55.673943
 20
51.160455
 11
54.413999
 21
47.557854
 39
0
 62
0
  0
LINE
  8
default
  6
CONTINUOUS
 10
54.413999
 20
47.557854
 11
53.798772
 21
43.791200
 39
0
 62
0
  0
LINE
  8
default
  6
CONTINUOUS
 10
53.798772
 20
43.791200
 11
53.846974
 21
39.974927
 39
0
 62
0
  0
LINE
  8
default
  6
CONTINUOUS
 10
53.846974
 20
39.974927
 11
54.557128
 21
36.225014
 39
0
 62
0
  0
LINE
  8
default
  6
CONTINUOUS
 10
54.557128
 20
36.225014
 11
55.907662
 21
32.655380
 39
0
 62
0
  0
LINE
  8
default
  6
CONTINUOUS
 10
55.907662
 20
32.655380
 11
57.857530
 21
29.374497
 39
0
 62
0
  0
LINE
  8
default
  6
CONTINUOUS
 10
57.857530
 20
29.374497
 11
60.347507
 21
26.482050
 39
0
 62
0
  0
LINE
  8
default
  6
CONTINUOUS
 10
60.347507
 20
26.482050
 11
63.301917
 21
24.065923
 39
0
 62
0
  0
LINE
  8
default
  6
CONTINUOUS
 10
63.301917
 20
24.065923
 11
66.630997
 21
22.199532
 39
0
 62
0
  0
LINE
  8
default
  6
CONTINUOUS
 10
66.630997
 20
22.199532
 11
70.233603
 21
20.939585
 39
0
 62
0
  0
LINE
  8
default
  6
CONTINUOUS
 10
70.233603
 20
20.939585
 11
71.830887
 21
20.596043
 39
0
 62
0
  0
LINE
  8
default
  6
CONTINUOUS
 10
59.956464
 20
57.443950
 11
59.545342
 21
54.685433
 39
0
 62
0
  0
LINE
  8
default
  6
CONTINUOUS
 10
59.545342
 20
54.685433
 11
59.619479
 21
51.897434
 39
0
 62
0
  0
LINE
  8
default
  6
CONTINUOUS
 10
59.619479
 20
51.897434
 11
60.176622
 21
49.164665
 39
0
 62
0
  0
LINE
  8
default
  6
CONTINUOUS
 10
60.176622
 20
49.164665
 11
61.199838
 21
46.570162
 39
0
 62
0
  0
LINE
  8
default
  6
CONTINUOUS
 10
61.199838
 20
46.570162
 11
62.658047
 21
44.192751
 39
0
 62
0
  0
LINE
  8
default
  6
CONTINUOUS
 10
62.658047
 20
44.192751
 11
64.506928
 21
42.104678
 39
0
 62
0
  0
LINE
  8
default
  6
CONTINUOUS
 10
64.506928
 20
42.104678
 11
66.690314
 21
40.369378
 39
0
 62
0
  0
LINE
  8
default
  6
CONTINUOUS
 10
66.690314
 20
40.369378
 11
69.141862
 21
39.039588
 39
0
 62
0
  0
LINE
  8
default
  6
CONTINUOUS
 10
69.141862
 20
39.039588
 11
69.883276
 21
38.739370
 39
0
 62
0
  0
LINE
  8
default
  6
CONTINUOUS
 10
71.827917
 20
20.579223
 11
73.478507
 21
20.434816
 39
0
 62
0
  0
LINE
  8
default
  6
CONTINUOUS
 10
73.478507
 20
20.434816
 11
75.129093
 21
20.579223
 39
0
 62
0
  0
LINE
  8
default
  6
CONTINUOUS
 10
75.129093
 20
20.579223
 11
76.729531
 21
21.008057
 39
0
 62
0
  0
LINE
  8
default
  6
CONTINUOUS
 10
76.729531
 20
21.008057
 11
78.231177
 21
21.708289
 39
0
 62
0
  0
LINE
  8
default
  6
CONTINUOUS
 10
78.231177
 20
21.708289
 11
79.588426
 21
22.658645
 39
0
 62
0
  0
LINE
  8
default
  6
CONTINUOUS
 10
79.588426
 20
22.658645
 11
80.760025
 21
23.830243
 39
0
 62
0
  0
LINE
  8
default
  6
CONTINUOUS
 10
80.760025
 20
23.830243
 11
81.710378
 21
25.187491
 39
0
 62
0
  0
LINE
  8
default
  6
CONTINUOUS
 10
81.710378
 20
25.187491
 11
82.410611
 21
26.689142
 39
0
 62
0
  0
LINE
  8
default
  6
CONTINUOUS
 10
82.410611
 20
26.689142
 11
82.839449
 21
28.289578
 39
0
 62
0
  0
LINE
  8
default
  6
CONTINUOUS
 10
82.839449
 20
28.289578
 11
82.983857
 21
29.940164
 39
0
 62
0
  0
LINE
  8
default
  6
CONTINUOUS
 10
82.983857
 20
29.940164
 11
82.839449
 21
31.590749
 39
0
 62
0
  0
LINE
  8
default
  6
CONTINUOUS
 10
82.839449
 20
31.590749
 11
82.410611
 21
33.191185
 39
0
 62
0
  0
LINE
  8
default
  6
CONTINUOUS
 10
82.410611
 20
33.191185
 11
81.710378
 21
34.692836
 39
0
 62
0
  0
LINE
  8
default
  6
CONTINUOUS
 10
81.710378
 20
34.692836
 11
80.760025
 21
36.050082
 39
0
 62
0
  0
LINE
  8
default
  6
CONTINUOUS
 10
80.760025
 20
36.050082
 11
79.588426
 21
37.221682
 39
0
 62
0
  0
LINE
  8
default
  6
CONTINUOUS
 10
79.588426
 20
37.221682
 11
78.231177
 21
38.172034
 39
0
 62
0
  0
LINE
  8
default
  6
CONTINUOUS
 10
78.231177
 20
38.172034
 11
76.729531
 21
38.872268
 39
0
 62
0
  0
LINE
  8
default
  6
CONTINUOUS
 10
76.729531
 20
38.872268
 11
75.129093
 21
39.301102
 39
0
 62
0
  0
LINE
  8
default
  6
CONTINUOUS
 10
75.129093
 20
39.301102
 11
73.478507
 21
39.445509
 39
0
 62
0
  0
LINE
  8
default
  6
CONTINUOUS
 10
73.478507
 20
39.445509
 11
71.827917
 21
39.301102
 39
0
 62
0
  0
LINE
  8
default
  6
CONTINUOUS
 10
71.827917
 20
39.301102
 11
70.227483
 21
38.872268
 39
0
 62
0
  0
LINE
  8
default
  6
CONTINUOUS
 10
70.227483
 20
38.872268
 11
69.883276
 21
38.739365
 39
0
 62
0
  0
LINE
  8
default
  6
CONTINUOUS
 10
81.596670
 20
56.598976
 11
83.590942
 21
57.848156
 39
0
 62
0
  0
LINE
  8
default
  6
CONTINUOUS
 10
83.590942
 20
57.848156
 11
85.338001
 21
59.424661
 39
0
 62
0
  0
LINE
  8
default
  6
CONTINUOUS
 10
85.338001
 20
59.424661
 11
86.784758
 21
61.280589
 39
0
 62
0
  0
LINE
  8
default
  6
CONTINUOUS
 10
86.784758
 20
61.280589
 11
87.887251
 21
63.359545
 39
0
 62
0
  0
LINE
  8
default
  6
CONTINUOUS
 10
87.887251
 20
63.359545
 11
88.611998
 21
65.598367
 39
0
 62
0
  0
LINE
  8
default
  6
CONTINUOUS
 10
88.611998
 20
65.598367
 11
88.936963
 21
67.929030
 39
0
 62
0
  0
LINE
  8
default
  6
CONTINUOUS
 10
88.936963
 20
67.929030
 11
88.852283
 21
70.280706
 39
0
 62
0
  0
LINE
  8
default
  6
CONTINUOUS
 10
88.852283
 20
70.280706
 11
88.360515
 21
72.581955
 39
0
 62
0
  0
LINE
  8
default
  6
CONTINUOUS
 10
88.360515
 20
72.581955
 11
87.476610
 21
74.762843
 39
0
 62
0
  0
LINE
  8
default
  6
CONTINUOUS
 10
87.476610
 20
74.762843
 11
86.227435
 21
76.757115
 39
0
 62
0
  0
LINE
  8
default
  6
CONTINUOUS
 10
86.227435
 20
76.757115
 11
84.650925
 21
78.504174
 39
0
 62
0
  0
LINE
  8
default
  6
CONTINUOUS
 10
84.650925
 20
78.504174
 11
82.794997
 21
79.950931
 39
0
 62
0
  0
LINE
  8
default
  6
CONTINUOUS
 10
82.794997
 20
79.950931
 11
81.019733
 21
80.920487
 39
0
 62
0
  0
LINE
  8
default
  6
CONTINUOUS
 10
93.400801
 20
73.113959
 11
94.352947
 21
76.357901
 39
0
 62
0
  0
LINE
  8
default
  6
CONTINUOUS
 10
94.352947
 20
76.357901
 11
94.727333
 21
79.717899
 39
0
 62
0
  0
LINE
  8
default
  6
CONTINUOUS
 10
94.727333
 20
79.717899
 11
94.512568
 21
83.091860
 39
0
 62
0
  0
LINE
  8
default
  6
CONTINUOUS
 10
94.512568
 20
83.091860
 11
93.715188
 21
86.377275
 39
0
 62
0
  0
LINE
  8
default
  6
CONTINUOUS
 10
93.715188
 20
86.377275
 11
92.359410
 21
89.474303
 39
0
 62
0
  0
LINE
  8
default
  6
CONTINUOUS
 10
92.359410
 20
89.474303
 11
90.486430
 21
92.288859
 39
0
 62
0
  0
LINE
  8
default
  6
CONTINUOUS
 10
90.486430
 20
92.288859
 11
88.153178
 21
94.735417
 39
0
 62
0
  0
LINE
  8
default
  6
CONTINUOUS
 10
88.153178
 20
94.735417
 11
85.430528
 21
96.739645
 39
0
 62
0
  0
LINE
  8
default
  6
CONTINUOUS
 10
85.430528
 20
96.739645
 11
82.401206
 21
98.240627
 39
0
 62
0
  0
LINE
  8
default
  6
CONTINUOUS
 10
82.401206
 20
98.240627
 11
79.157260
 21
99.192790
 39
0
 62
0
  0
LINE
  8
default
  6
CONTINUOUS
 10
79.157260
 20
99.192790
 11
78.705588
 21
99.277959
 39
0
 62
0
  0
LINE
  8
default
  6
CONTINUOUS
 10
76.751516
 20
56.277643
 11
76.713538
 21
55.843520
 39
0
 62
0
  0
LINE
  8
default
  6
CONTINUOUS
 10
76.713538
 20
55.843520
 11
76.751516
 21
55.409402
 39
0
 62
0
  0
LINE
  8
default
  6
CONTINUOUS
 10
76.751516
 20
55.409402
 11
76.864314
 21
54.988469
 39
0
 62
0
  0
LINE
  8
default
  6
CONTINUOUS
 10
76.864314
 20
54.988469
 11
77.048476
 21
54.593519
 39
0
 62
0
  0
LINE
  8
default
  6
CONTINUOUS
 10
77.048476
 20
54.593519
 11
77.298428
 21
54.236543
 39
0
 62
0
  0
LINE
  8
default
  6
CONTINUOUS
 10
77.298428
 20
54.236543
 11
77.606577
 21
53.928407
 39
0
 62
0
  0
LINE
  8
default
  6
CONTINUOUS
 10
77.606577
 20
53.928407
 11
77.963535
 21
53.678455
 39
0
 62
0
  0
LINE
  8
default
  6
CONTINUOUS
 10
77.963535
 20
53.678455
 11
78.358489
 21
53.494289
 39
0
 62
0
  0
LINE
  8
default
  6
CONTINUOUS
 10
78.358489
 20
53.494289
 11
78.779419
 21
53.381500
 39
0
 62
0
  0
LINE
  8
default
  6
CONTINUOUS
 10
78.779419
 20
53.381500
 11
79.213541
 21
53.343521
 39
0
 62
0
  0
LINE
  8
default
  6
CONTINUOUS
 10
79.213541
 20
53.343521
 11
79.647655
 21
53.381500
 39
0
 62
0
  0
LINE
  8
default
  6
CONTINUOUS
 10
79.647655
 20
53.381500
 11
80.068584
 21
53.494289
 39
0
 62
0
  0
LINE
  8
default
  6
CONTINUOUS
 10
80.068584
 20
53.494289
 11
80.463539
 21
53.678455
 39
0
 62
0
  0
LINE
  8
default
  6
CONTINUOUS
 10
80.463539
 20
53.678455
 11
80.820514
 21
53.928407
 39
0
 62
0
  0
LINE
  8
default
  6
CONTINUOUS
 10
80.820514
 20
53.928407
 11
81.128655
 21
54.236543
 39
0
 62
0
  0
LINE
  8
default
  6
CONTINUOUS
 10
81.128655
 20
54.236543
 11
81.378607
 21
54.593519
 39
0
 62
0
  0
LINE
  8
default
  6
CONTINUOUS
 10
81.378607
 20
54.593519
 11
81.562777
 21
54.988469
 39
0
 62
0
  0
LINE
  8
default
  6
CONTINUOUS
 10
81.562777
 20
54.988469
 11
81.675558
 21
55.409402
 39
0
 62
0
  0
LINE
  8
default
  6
CONTINUOUS
 10
81.675558
 20
55.409402
 11
81.713536
 21
55.843520
 39
0
 62
0
  0
LINE
  8
default
  6
CONTINUOUS
 10
81.713536
 20
55.843520
 11
81.675558
 21
56.277643
 39
0
 62
0
  0
LINE
  8
default
  6
CONTINUOUS
 10
81.675558
 20
56.277643
 11
81.562777
 21
56.698568
 39
0
 62
0
  0
LINE
  8
default
  6
CONTINUOUS
 10
81.562777
 20
56.698568
 11
81.378607
 21
57.093522
 39
0
 62
0
  0
LINE
  8
default
  6
CONTINUOUS
 10
81.378607
 20
57.093522
 11
81.128655
 21
57.450489
 39
0
 62
0
  0
LINE
  8
default
  6
CONTINUOUS
 10
81.128655
 20
57.450489
 11
80.820514
 21
57.758634
 39
0
 62
0
  0
LINE
  8
default
  6
CONTINUOUS
 10
80.820514
 20
57.758634
 11
80.463539
 21
58.008582
 39
0
 62
0
  0
LINE
  8
default
  6
CONTINUOUS
 10
80.463539
 20
58.008582
 11
80.068584
 21
58.192752
 39
0
 62
0
  0
LINE
  8
default
  6
CONTINUOUS
 10
80.068584
 20
58.192752
 11
79.647655
 21
58.305537
 39
0
 62
0
  0
LINE
  8
default
  6
CONTINUOUS
 10
79.647655
 20
58.305537
 11
79.213541
 21
58.343520
 39
0
 62
0
  0
LINE
  8
default
  6
CONTINUOUS
 10
79.213541
 20
58.343520
 11
78.779419
 21
58.305537
 39
0
 62
0
  0
LINE
  8
default
  6
CONTINUOUS
 10
78.779419
 20
58.305537
 11
78.358489
 21
58.192752
 39
0
 62
0
  0
LINE
  8
default
  6
CONTINUOUS
 10
78.358489
 20
58.192752
 11
77.963535
 21
58.008582
 39
0
 62
0
  0
LINE
  8
default
  6
CONTINUOUS
 10
77.963535
 20
58.008582
 11
77.606577
 21
57.758634
 39
0
 62
0
  0
LINE
  8
default
  6
CONTINUOUS
 10
77.606577
 20
57.758634
 11
77.298428
 21
57.450489
 39
0
 62
0
  0
LINE
  8
default
  6
CONTINUOUS
 10
77.298428
 20
57.450489
 11
77.048476
 21
57.093522
 39
0
 62
0
  0
LINE
  8
default
  6
CONTINUOUS
 10
77.048476
 20
57.093522
 11
76.864314
 21
56.698568
 39
0
 62
0
  0
LINE
  8
default
  6
CONTINUOUS
 10
76.864314
 20
56.698568
 11
76.751516
 21
56.277643
 39
0
 62
0
  0
LINE
  8
default
  6
CONTINUOUS
 10
90.421768
 20
60.228270
 11
90.383781
 21
59.794152
 39
0
 62
0
  0
LINE
  8
default
  6
CONTINUOUS
 10
90.383781
 20
59.794152
 11
90.421768
 21
59.360030
 39
0
 62
0
  0
LINE
  8
default
  6
CONTINUOUS
 10
90.421768
 20
59.360030
 11
90.534557
 21
58.939096
 39
0
 62
0
  0
LINE
  8
default
  6
CONTINUOUS
 10
90.534557
 20
58.939096
 11
90.718719
 21
58.544151
 39
0
 62
0
  0
LINE
  8
default
  6
CONTINUOUS
 10
90.718719
 20
58.544151
 11
90.968671
 21
58.187183
 39
0
 62
0
  0
LINE
  8
default
  6
CONTINUOUS
 10
90.968671
 20
58.187183
 11
91.276820
 21
57.879039
 39
0
 62
0
  0
LINE
  8
default
  6
CONTINUOUS
 10
91.276820
 20
57.879039
 11
91.633778
 21
57.629091
 39
0
 62
0
  0
LINE
  8
default
  6
CONTINUOUS
 10
91.633778
 20
57.629091
 11
92.028732
 21
57.444921
 39
0
 62
0
  0
LINE
  8
default
  6
CONTINUOUS
 10
92.028732
 20
57.444921
 11
92.449662
 21
57.332132
 39
0
 62
0
  0
LINE
  8
default
  6
CONTINUOUS
 10
92.449662
 20
57.332132
 11
92.883784
 21
57.294149
 39
0
 62
0
  0
LINE
  8
default
  6
CONTINUOUS
 10
92.883784
 20
57.294149
 11
93.317898
 21
57.332132
 39
0
 62
0
  0
LINE
  8
default
  6
CONTINUOUS
 10
93.317898
 20
57.332132
 11
93.738836
 21
57.444921
 39
0
 62
0
  0
LINE
  8
default
  6
CONTINUOUS
 10
93.738836
 20
57.444921
 11
94.133782
 21
57.629091
 39
0
 62
0
  0
LINE
  8
default
  6
CONTINUOUS
 10
94.133782
 20
57.629091
 11
94.490749
 21
57.879039
 39
0
 62
0
  0
LINE
  8
default
  6
CONTINUOUS
 10
94.490749
 20
57.879039
 11
94.798898
 21
58.187183
 39
0
 62
0
  0
LINE
  8
default
  6
CONTINUOUS
 10
94.798898
 20
58.187183
 11
95.048850
 21
58.544151
 39
0
 62
0
  0
LINE
  8
default
  6
CONTINUOUS
 10
95.048850
 20
58.544151
 11
95.233020
 21
58.939096
 39
0
 62
0
  0
LINE
  8
default
  6
CONTINUOUS
 10
95.233020
 20
58.939096
 11
95.345801
 21
59.360030
 39
0
 62
0
  0
LINE
  8
default
  6
CONTINUOUS
 10
95.345801
 20
59.360030
 11
95.383779
 21
59.794152
 39
0
 62
0
  0
LINE
  8
default
  6
CONTINUOUS
 10
95.383779
 20
59.794152
 11
95.345801
 21
60.228270
 39
0
 62
0
  0
LINE
  8
default
  6
CONTINUOUS
 10
95.345801
 20
60.228270
 11
95.233020
 21
60.649204
 39
0
 62
0
  0
LINE
  8
default
  6
CONTINUOUS
 10
95.233020
 20
60.649204
 11
95.048850
 21
61.044150
 39
0
 62
0
  0
LINE
  8
default
  6
CONTINUOUS
 10
95.048850
 20
61.044150
 11
94.798898
 21
61.401117
 39
0
 62
0
  0
LINE
  8
default
  6
CONTINUOUS
 10
94.798898
 20
61.401117
 11
94.490749
 21
61.709261
 39
0
 62
0
  0
LINE
  8
default
  6
CONTINUOUS
 10
94.490749
 20
61.709261
 11
94.133782
 21
61.959218
 39
0
 62
0
  0
LINE
  8
default
  6
CONTINUOUS
 10
94.133782
 20
61.959218
 11
93.738836
 21
62.143384
 39
0
 62
0
  0
LINE
  8
default
  6
CONTINUOUS
 10
93.738836
 20
62.143384
 11
93.317898
 21
62.256173
 39
0
 62
0
  0
LINE
  8
default
  6
CONTINUOUS
 10
93.317898
 20
62.256173
 11
92.883784
 21
62.294151
 39
0
 62
0
  0
LINE
  8
default
  6
CONTINUOUS
 10
92.883784
 20
62.294151
 11
92.449662
 21
62.256173
 39
0
 62
0
  0
LINE
  8
default
  6
CONTINUOUS
 10
92.449662
 20
62.256173
 11
92.028732
 21
62.143384
 39
0
 62
0
  0
LINE
  8
default
  6
CONTINUOUS
 10
92.028732
 20
62.143384
 11
91.633778
 21
61.959218
 39
0
 62
0
  0
LINE
  8
default
  6
CONTINUOUS
 10
91.633778
 20
61.959218
 11
91.276820
 21
61.709261
 39
0
 62
0
  0
LINE
  8
default
  6
CONTINUOUS
 10
91.276820
 20
61.709261
 11
90.968671
 21
61.401117
 39
0
 62
0
  0
LINE
  8
default
  6
CONTINUOUS
 10
90.968671
 20
61.401117
 11
90.718719
 21
61.044150
 39
0
 62
0
  0
LINE
  8
default
  6
CONTINUOUS
 10
90.718719
 20
61.044150
 11
90.534557
 21
60.649204
 39
0
 62
0
  0
LINE
  8
default
  6
CONTINUOUS
 10
90.534557
 20
60.649204
 11
90.421768
 21
60.228270
 39
0
 62
0
  0
LINE
  8
default
  6
CONTINUOUS
 10
62.772989
 20
92.452663
 11
63.207111
 21
92.414684
 39
0
 62
0
  0
LINE
  8
default
  6
CONTINUOUS
 10
63.207111
 20
92.414684
 11
63.641229
 21
92.452663
 39
0
 62
0
  0
LINE
  8
default
  6
CONTINUOUS
 10
63.641229
 20
92.452663
 11
64.062163
 21
92.565452
 39
0
 62
0
  0
LINE
  8
default
  6
CONTINUOUS
 10
64.062163
 20
92.565452
 11
64.457108
 21
92.749622
 39
0
 62
0
  0
LINE
  8
default
  6
CONTINUOUS
 10
64.457108
 20
92.749622
 11
64.814080
 21
92.999574
 39
0
 62
0
  0
LINE
  8
default
  6
CONTINUOUS
 10
64.814080
 20
92.999574
 11
65.122225
 21
93.307714
 39
0
 62
0
  0
LINE
  8
default
  6
CONTINUOUS
 10
65.122225
 20
93.307714
 11
65.372177
 21
93.664690
 39
0
 62
0
  0
LINE
  8
default
  6
CONTINUOUS
 10
65.372177
 20
93.664690
 11
65.556343
 21
94.059636
 39
0
 62
0
  0
LINE
  8
default
  6
CONTINUOUS
 10
65.556343
 20
94.059636
 11
65.669127
 21
94.480565
 39
0
 62
0
  0
LINE
  8
default
  6
CONTINUOUS
 10
65.669127
 20
94.480565
 11
65.707106
 21
94.914688
 39
0
 62
0
  0
LINE
  8
default
  6
CONTINUOUS
 10
65.707106
 20
94.914688
 11
65.669127
 21
95.348810
 39
0
 62
0
  0
LINE
  8
default
  6
CONTINUOUS
 10
65.669127
 20
95.348810
 11
65.556343
 21
95.769739
 39
0
 62
0
  0
LINE
  8
default
  6
CONTINUOUS
 10
65.556343
 20
95.769739
 11
65.372177
 21
96.164685
 39
0
 62
0
  0
LINE
  8
default
  6
CONTINUOUS
 10
65.372177
 20
96.164685
 11
65.122225
 21
96.521661
 39
0
 62
0
  0
LINE
  8
default
  6
CONTINUOUS
 10
65.122225
 20
96.521661
 11
64.814080
 21
96.829784
 39
0
 62
0
  0
LINE
  8
default
  6
CONTINUOUS
 10
64.814080
 20
96.829784
 11
64.457108
 21
97.079753
 39
0
 62
0
  0
LINE
  8
default
  6
CONTINUOUS
 10
64.457108
 20
97.079753
 11
64.062163
 21
97.263915
 39
0
 62
0
  0
LINE
  8
default
  6
CONTINUOUS
 10
64.062163
 20
97.263915
 11
63.641229
 21
97.376713
 39
0
 62
0
  0
LINE
  8
default
  6
CONTINUOUS
 10
63.641229
 20
97.376713
 11
63.207111
 21
97.414691
 39
0
 62
0
  0
LINE
  8
default
  6
CONTINUOUS
 10
63.207111
 20
97.414691
 11
62.772989
 21
97.376713
 39
0
 62
0
  0
LINE
  8
default
  6
CONTINUOUS
 10
62.772989
 20
97.376713
 11
62.352064
 21
97.263915
 39
0
 62
0
  0
LINE
  8
default
  6
CONTINUOUS
 10
62.352064
 20
97.263915
 11
61.957105
 21
97.079753
 39
0
 62
0
  0
LINE
  8
default
  6
CONTINUOUS
 10
61.957105
 20
97.079753
 11
61.600142
 21
96.829784
 39
0
 62
0
  0
LINE
  8
default
  6
CONTINUOUS
 10
61.600142
 20
96.829784
 11
61.291998
 21
96.521661
 39
0
 62
0
  0
LINE
  8
default
  6
CONTINUOUS
 10
61.291998
 20
96.521661
 11
61.042050
 21
96.164685
 39
0
 62
0
  0
LINE
  8
default
  6
CONTINUOUS
 10
61.042050
 20
96.164685
 11
60.857880
 21
95.769739
 39
0
 62
0
  0
LINE
  8
default
  6
CONTINUOUS
 10
60.857880
 20
95.769739
 11
60.745091
 21
95.348810
 39
0
 62
0
  0
LINE
  8
default
  6
CONTINUOUS
 10
60.745091
 20
95.348810
 11
60.707112
 21
94.914688
 39
0
 62
0
  0
LINE
  8
default
  6
CONTINUOUS
 10
60.707112
 20
94.914688
 11
60.745091
 21
94.480565
 39
0
 62
0
  0
LINE
  8
default
  6
CONTINUOUS
 10
60.745091
 20
94.480565
 11
60.857880
 21
94.059636
 39
0
 62
0
  0
LINE
  8
default
  6
CONTINUOUS
 10
60.857880
 20
94.059636
 11
61.042050
 21
93.664690
 39
0
 62
0
  0
LINE
  8
default
  6
CONTINUOUS
 10
61.042050
 20
93.664690
 11
61.291998
 21
93.307714
 39
0
 62
0
  0
LINE
  8
default
  6
CONTINUOUS
 10
61.291998
 20
93.307714
 11
61.600142
 21
92.999574
 39
0
 62
0
  0
LINE
  8
default
  6
CONTINUOUS
 10
61.600142
 20
92.999574
 11
61.957105
 21
92.749622
 39
0
 62
0
  0
LINE
  8
default
  6
CONTINUOUS
 10
61.957105
 20
92.749622
 11
62.352064
 21
92.565452
 39
0
 62
0
  0
LINE
  8
default
  6
CONTINUOUS
 10
62.352064
 20
92.565452
 11
62.772989
 21
92.452663
 39
0
 62
0
  0
LINE
  8
default
  6
CONTINUOUS
 10
67.043943
 20
82.028054
 11
67.377779
 21
82.308163
 39
0
 62
0
  0
LINE
  8
default
  6
CONTINUOUS
 10
67.377779
 20
82.308163
 11
67.657888
 21
82.641990
 39
0
 62
0
  0
LINE
  8
default
  6
CONTINUOUS
 10
67.657888
 20
82.641990
 11
67.875776
 21
83.019385
 39
0
 62
0
  0
LINE
  8
default
  6
CONTINUOUS
 10
67.875776
 20
83.019385
 11
68.024820
 21
83.428880
 39
0
 62
0
  0
LINE
  8
default
  6
CONTINUOUS
 10
68.024820
 20
83.428880
 11
68.100492
 21
83.858042
 39
0
 62
0
  0
LINE
  8
default
  6
CONTINUOUS
 10
68.100492
 20
83.858042
 11
68.100492
 21
84.293818
 39
0
 62
0
  0
LINE
  8
default
  6
CONTINUOUS
 10
68.100492
 20
84.293818
 11
68.024820
 21
84.722980
 39
0
 62
0
  0
LINE
  8
default
  6
CONTINUOUS
 10
68.024820
 20
84.722980
 11
67.875776
 21
85.132475
 39
0
 62
0
  0
LINE
  8
default
  6
CONTINUOUS
 10
67.875776
 20
85.132475
 11
67.657888
 21
85.509870
 39
0
 62
0
  0
LINE
  8
default
  6
CONTINUOUS
 10
67.657888
 20
85.509870
 11
67.377779
 21
85.843697
 39
0
 62
0
  0
LINE
  8
default
  6
CONTINUOUS
 10
67.377779
 20
85.843697
 11
67.043943
 21
86.123806
 39
0
 62
0
  0
LINE
  8
default
  6
CONTINUOUS
 10
67.043943
 20
86.123806
 11
66.666548
 21
86.341694
 39
0
 62
0
  0
LINE
  8
default
  6
CONTINUOUS
 10
66.666548
 20
86.341694
 11
66.257058
 21
86.490747
 39
0
 62
0
  0
LINE
  8
default
  6
CONTINUOUS
 10
66.257058
 20
86.490747
 11
65.827896
 21
86.566415
 39
0
 62
0
  0
LINE
  8
default
  6
CONTINUOUS
 10
65.827896
 20
86.566415
 11
65.392120
 21
86.566415
 39
0
 62
0
  0
LINE
  8
default
  6
CONTINUOUS
 10
65.392120
 20
86.566415
 11
64.962958
 21
86.490747
 39
0
 62
0
  0
LINE
  8
default
  6
CONTINUOUS
 10
64.962958
 20
86.490747
 11
64.553459
 21
86.341694
 39
0
 62
0
  0
LINE
  8
default
  6
CONTINUOUS
 10
64.553459
 20
86.341694
 11
64.176063
 21
86.123806
 39
0
 62
0
  0
LINE
  8
default
  6
CONTINUOUS
 10
64.176063
 20
86.123806
 11
63.842241
 21
85.843697
 39
0
 62
0
  0
LINE
  8
default
  6
CONTINUOUS
 10
63.842241
 20
85.843697
 11
63.562127
 21
85.509870
 39
0
 62
0
  0
LINE
  8
default
  6
CONTINUOUS
 10
63.562127
 20
85.509870
 11
63.344239
 21
85.132475
 39
0
 62
0
  0
LINE
  8
default
  6
CONTINUOUS
 10
63.344239
 20
85.132475
 11
63.195195
 21
84.722980
 39
0
 62
0
  0
LINE
  8
default
  6
CONTINUOUS
 10
63.195195
 20
84.722980
 11
63.119523
 21
84.293818
 39
0
 62
0
  0
LINE
  8
default
  6
CONTINUOUS
 10
63.119523
 20
84.293818
 11
63.119523
 21
83.858042
 39
0
 62
0
  0
LINE
  8
default
  6
CONTINUOUS
 10
63.119523
 20
83.858042
 11
63.195195
 21
83.428880
 39
0
 62
0
  0
LINE
  8
default
  6
CONTINUOUS
 10
63.195195
 20
83.428880
 11
63.344239
 21
83.019385
 39
0
 62
0
  0
LINE
  8
default
  6
CONTINUOUS
 10
63.344239
 20
83.019385
 11
63.562127
 21
82.641990
 39
0
 62
0
  0
LINE
  8
default
  6
CONTINUOUS
 10
63.562127
 20
82.641990
 11
63.842241
 21
82.308163
 39
0
 62
0
  0
LINE
  8
default
  6
CONTINUOUS
 10
63.842241
 20
82.308163
 11
64.176063
 21
82.028054
 39
0
 62
0
  0
LINE
  8
default
  6
CONTINUOUS
 10
64.176063
 20
82.028054
 11
64.553459
 21
81.810157
 39
0
 62
0
  0
LINE
  8
default
  6
CONTINUOUS
 10
64.553459
 20
81.810157
 11
64.962958
 21
81.661113
 39
0
 62
0
  0
LINE
  8
default
  6
CONTINUOUS
 10
64.962958
 20
81.661113
 11
65.392120
 21
81.585445
 39
0
 62
0
  0
LINE
  8
default
  6
CONTINUOUS
 10
65.392120
 20
81.585445
 11
65.827896
 21
81.585445
 39
0
 62
0
  0
LINE
  8
default
  6
CONTINUOUS
 10
65.827896
 20
81.585445
 11
66.257058
 21
81.661113
 39
0
 62
0
  0
LINE
  8
default
  6
CONTINUOUS
 10
66.257058
 20
81.661113
 11
66.666548
 21
81.810157
 39
0
 62
0
  0
LINE
  8
default
  6
CONTINUOUS
 10
66.666548
 20
81.810157
 11
67.043943
 21
82.028054
 39
0
 62
0
  0
LINE
  8
default
  6
CONTINUOUS
 10
77.435276
 20
77.676759
 11
77.473254
 21
78.110882
 39
0
 62
0
  0
LINE
  8
default
  6
CONTINUOUS
 10
77.473254
 20
78.110882
 11
77.435276
 21
78.545004
 39
0
 62
0
  0
LINE
  8
default
  6
CONTINUOUS
 10
77.435276
 20
78.545004
 11
77.322496
 21
78.965934
 39
0
 62
0
  0
LINE
  8
default
  6
CONTINUOUS
 10
77.322496
 20
78.965934
 11
77.138317
 21
79.360888
 39
0
 62
0
  0
LINE
  8
default
  6
CONTINUOUS
 10
77.138317
 20
79.360888
 11
76.888373
 21
79.717846
 39
0
 62
0
  0
LINE
  8
default
  6
CONTINUOUS
 10
76.888373
 20
79.717846
 11
76.580233
 21
80.025995
 39
0
 62
0
  0
LINE
  8
default
  6
CONTINUOUS
 10
76.580233
 20
80.025995
 11
76.223257
 21
80.275948
 39
0
 62
0
  0
LINE
  8
default
  6
CONTINUOUS
 10
76.223257
 20
80.275948
 11
75.828312
 21
80.460109
 39
0
 62
0
  0
LINE
  8
default
  6
CONTINUOUS
 10
75.828312
 20
80.460109
 11
75.407382
 21
80.572898
 39
0
 62
0
  0
LINE
  8
default
  6
CONTINUOUS
 10
75.407382
 20
80.572898
 11
74.973260
 21
80.610885
 39
0
 62
0
  0
LINE
  8
default
  6
CONTINUOUS
 10
74.973260
 20
80.610885
 11
74.539137
 21
80.572898
 39
0
 62
0
  0
LINE
  8
default
  6
CONTINUOUS
 10
74.539137
 20
80.572898
 11
74.118208
 21
80.460109
 39
0
 62
0
  0
LINE
  8
default
  6
CONTINUOUS
 10
74.118208
 20
80.460109
 11
73.723262
 21
80.275948
 39
0
 62
0
  0
LINE
  8
default
  6
CONTINUOUS
 10
73.723262
 20
80.275948
 11
73.366287
 21
80.025995
 39
0
 62
0
  0
LINE
  8
default
  6
CONTINUOUS
 10
73.366287
 20
80.025995
 11
73.058151
 21
79.717846
 39
0
 62
0
  0
LINE
  8
default
  6
CONTINUOUS
 10
73.058151
 20
79.717846
 11
72.808198
 21
79.360888
 39
0
 62
0
  0
LINE
  8
default
  6
CONTINUOUS
 10
72.808198
 20
79.360888
 11
72.624033
 21
78.965934
 39
0
 62
0
  0
LINE
  8
default
  6
CONTINUOUS
 10
72.624033
 20
78.965934
 11
72.511239
 21
78.545004
 39
0
 62
0
  0
LINE
  8
default
  6
CONTINUOUS
 10
72.511239
 20
78.545004
 11
72.473256
 21
78.110882
 39
0
 62
0
  0
LINE
  8
default
  6
CONTINUOUS
 10
72.473256
 20
78.110882
 11
72.511239
 21
77.676759
 39
0
 62
0
  0
LINE
  8
default
  6
CONTINUOUS
 10
72.511239
 20
77.676759
 11
72.624033
 21
77.255830
 39
0
 62
0
  0
LINE
  8
default
  6
CONTINUOUS
 10
72.624033
 20
77.255830
 11
72.808198
 21
76.860885
 39
0
 62
0
  0
LINE
  8
default
  6
CONTINUOUS
 10
72.808198
 20
76.860885
 11
73.058151
 21
76.503917
 39
0
 62
0
  0
LINE
  8
default
  6
CONTINUOUS
 10
73.058151
 20
76.503917
 11
73.366287
 21
76.195768
 39
0
 62
0
  0
LINE
  8
default
  6
CONTINUOUS
 10
73.366287
 20
76.195768
 11
73.723262
 21
75.945816
 39
0
 62
0
  0
LINE
  8
default
  6
CONTINUOUS
 10
73.723262
 20
75.945816
 11
74.118208
 21
75.761646
 39
0
 62
0
  0
LINE
  8
default
  6
CONTINUOUS
 10
74.118208
 20
75.761646
 11
74.539137
 21
75.648866
 39
0
 62
0
  0
LINE
  8
default
  6
CONTINUOUS
 10
74.539137
 20
75.648866
 11
74.973260
 21
75.610887
 39
0
 62
0
  0
LINE
  8
default
  6
CONTINUOUS
 10
74.973260
 20
75.610887
 11
75.407382
 21
75.648866
 39
0
 62
0
  0
LINE
  8
default
  6
CONTINUOUS
 10
75.407382
 20
75.648866
 11
75.828312
 21
75.761646
 39
0
 62
0
  0
LINE
  8
default
  6
CONTINUOUS
 10
75.828312
 20
75.761646
 11
76.223257
 21
75.945816
 39
0
 62
0
  0
LINE
  8
default
  6
CONTINUOUS
 10
76.223257
 20
75.945816
 11
76.580233
 21
76.195768
 39
0
 62
0
  0
LINE
  8
default
  6
CONTINUOUS
 10
76.580233
 20
76.195768
 11
76.888373
 21
76.503917
 39
0
 62
0
  0
LINE
  8
default
  6
CONTINUOUS
 10
76.888373
 20
76.503917
 11
77.138317
 21
76.860885
 39
0
 62
0
  0
LINE
  8
default
  6
CONTINUOUS
 10
77.138317
 20
76.860885
 11
77.322496
 21
77.255830
 39
0
 62
0
  0
LINE
  8
default
  6
CONTINUOUS
 10
77.322496
 20
77.255830
 11
77.435276
 21
77.676759
 39
0
 62
0
  0
LINE
  8
default
  6
CONTINUOUS
 10
88.749608
 20
66.276633
 11
88.787586
 21
66.710755
 39
0
 62
0
  0
LINE
  8
default
  6
CONTINUOUS
 10
88.787586
 20
66.710755
 11
88.749608
 21
67.144873
 39
0
 62
0
  0
LINE
  8
default
  6
CONTINUOUS
 10
88.749608
 20
67.144873
 11
88.636827
 21
67.565803
 39
0
 62
0
  0
LINE
  8
default
  6
CONTINUOUS
 10
88.636827
 20
67.565803
 11
88.452640
 21
67.960753
 39
0
 62
0
  0
LINE
  8
default
  6
CONTINUOUS
 10
88.452640
 20
67.960753
 11
88.202705
 21
68.317720
 39
0
 62
0
  0
LINE
  8
default
  6
CONTINUOUS
 10
88.202705
 20
68.317720
 11
87.894565
 21
68.625860
 39
0
 62
0
  0
LINE
  8
default
  6
CONTINUOUS
 10
87.894565
 20
68.625860
 11
87.537589
 21
68.875817
 39
0
 62
0
  0
LINE
  8
default
  6
CONTINUOUS
 10
87.537589
 20
68.875817
 11
87.142635
 21
69.059983
 39
0
 62
0
  0
LINE
  8
default
  6
CONTINUOUS
 10
87.142635
 20
69.059983
 11
86.721714
 21
69.172767
 39
0
 62
0
  0
LINE
  8
default
  6
CONTINUOUS
 10
86.721714
 20
69.172767
 11
86.287592
 21
69.210754
 39
0
 62
0
  0
LINE
  8
default
  6
CONTINUOUS
 10
86.287592
 20
69.210754
 11
85.853469
 21
69.172767
 39
0
 62
0
  0
LINE
  8
default
  6
CONTINUOUS
 10
85.853469
 20
69.172767
 11
85.432540
 21
69.059983
 39
0
 62
0
  0
LINE
  8
default
  6
CONTINUOUS
 10
85.432540
 20
69.059983
 11
85.037585
 21
68.875817
 39
0
 62
0
  0
LINE
  8
default
  6
CONTINUOUS
 10
85.037585
 20
68.875817
 11
84.680618
 21
68.625860
 39
0
 62
0
  0
LINE
  8
default
  6
CONTINUOUS
 10
84.680618
 20
68.625860
 11
84.372478
 21
68.317720
 39
0
 62
0
  0
LINE
  8
default
  6
CONTINUOUS
 10
84.372478
 20
68.317720
 11
84.122526
 21
67.960753
 39
0
 62
0
  0
LINE
  8
default
  6
CONTINUOUS
 10
84.122526
 20
67.960753
 11
83.938364
 21
67.565803
 39
0
 62
0
  0
LINE
  8
default
  6
CONTINUOUS
 10
83.938364
 20
67.565803
 11
83.825567
 21
67.144873
 39
0
 62
0
  0
LINE
  8
default
  6
CONTINUOUS
 10
83.825567
 20
67.144873
 11
83.787588
 21
66.710755
 39
0
 62
0
  0
LINE
  8
default
  6
CONTINUOUS
 10
83.787588
 20
66.710755
 11
83.825567
 21
66.276633
 39
0
 62
0
  0
LINE
  8
default
  6
CONTINUOUS
 10
83.825567
 20
66.276633
 11
83.938364
 21
65.855699
 39
0
 62
0
  0
LINE
  8
default
  6
CONTINUOUS
 10
83.938364
 20
65.855699
 11
84.122526
 21
65.460754
 39
0
 62
0
  0
LINE
  8
default
  6
CONTINUOUS
 10
84.122526
 20
65.460754
 11
84.372478
 21
65.103782
 39
0
 62
0
  0
LINE
  8
default
  6
CONTINUOUS
 10
84.372478
 20
65.103782
 11
84.680618
 21
64.795638
 39
0
 62
0
  0
LINE
  8
default
  6
CONTINUOUS
 10
84.680618
 20
64.795638
 11
85.037585
 21
64.545685
 39
0
 62
0
  0
LINE
  8
default
  6
CONTINUOUS
 10
85.037585
 20
64.545685
 11
85.432540
 21
64.361519
 39
0
 62
0
  0
LINE
  8
default
  6
CONTINUOUS
 10
85.432540
 20
64.361519
 11
85.853469
 21
64.248735
 39
0
 62
0
  0
LINE
  8
default
  6
CONTINUOUS
 10
85.853469
 20
64.248735
 11
86.287592
 21
64.210752
 39
0
 62
0
  0
LINE
  8
default
  6
CONTINUOUS
 10
86.287592
 20
64.210752
 11
86.721714
 21
64.248735
 39
0
 62
0
  0
LINE
  8
default
  6
CONTINUOUS
 10
86.721714
 20
64.248735
 11
87.142635
 21
64.361519
 39
0
 62
0
  0
LINE
  8
default
  6
CONTINUOUS
 10
87.142635
 20
64.361519
 11
87.537589
 21
64.545685
 39
0
 62
0
  0
LINE
  8
default
  6
CONTINUOUS
 10
87.537589
 20
64.545685
 11
87.894565
 21
64.795638
 39
0
 62
0
  0
LINE
  8
default
  6
CONTINUOUS
 10
87.894565
 20
64.795638
 11
88.202705
 21
65.103782
 39
0
 62
0
  0
LINE
  8
default
  6
CONTINUOUS
 10
88.202705
 20
65.103782
 11
88.452640
 21
65.460754
 39
0
 62
0
  0
LINE
  8
default
  6
CONTINUOUS
 10
88.452640
 20
65.460754
 11
88.636827
 21
65.855699
 39
0
 62
0
  0
LINE
  8
default
  6
CONTINUOUS
 10
88.636827
 20
65.855699
 11
88.749608
 21
66.276633
 39
0
 62
0
  0
LINE
  8
default
  6
CONTINUOUS
 10
86.927389
 20
74.496093
 11
86.965367
 21
74.930216
 39
0
 62
0
  0
LINE
  8
default
  6
CONTINUOUS
 10
86.965367
 20
74.930216
 11
86.927389
 21
75.364330
 39
0
 62
0
  0
LINE
  8
default
  6
CONTINUOUS
 10
86.927389
 20
75.364330
 11
86.814608
 21
75.785259
 39
0
 62
0
  0
LINE
  8
default
  6
CONTINUOUS
 10
86.814608
 20
75.785259
 11
86.630438
 21
76.180213
 39
0
 62
0
  0
LINE
  8
default
  6
CONTINUOUS
 10
86.630438
 20
76.180213
 11
86.380486
 21
76.537189
 39
0
 62
0
  0
LINE
  8
default
  6
CONTINUOUS
 10
86.380486
 20
76.537189
 11
86.072346
 21
76.845329
 39
0
 62
0
  0
LINE
  8
default
  6
CONTINUOUS
 10
86.072346
 20
76.845329
 11
85.715370
 21
77.095273
 39
0
 62
0
  0
LINE
  8
default
  6
CONTINUOUS
 10
85.715370
 20
77.095273
 11
85.320416
 21
77.279452
 39
0
 62
0
  0
LINE
  8
default
  6
CONTINUOUS
 10
85.320416
 20
77.279452
 11
84.899486
 21
77.392232
 39
0
 62
0
  0
LINE
  8
default
  6
CONTINUOUS
 10
84.899486
 20
77.392232
 11
84.465372
 21
77.430202
 39
0
 62
0
  0
LINE
  8
default
  6
CONTINUOUS
 10
84.465372
 20
77.430202
 11
84.031250
 21
77.392232
 39
0
 62
0
  0
LINE
  8
default
  6
CONTINUOUS
 10
84.031250
 20
77.392232
 11
83.610321
 21
77.279452
 39
0
 62
0
  0
LINE
  8
default
  6
CONTINUOUS
 10
83.610321
 20
77.279452
 11
83.215366
 21
77.095273
 39
0
 62
0
  0
LINE
  8
default
  6
CONTINUOUS
 10
83.215366
 20
77.095273
 11
82.858408
 21
76.845329
 39
0
 62
0
  0
LINE
  8
default
  6
CONTINUOUS
 10
82.858408
 20
76.845329
 11
82.550259
 21
76.537189
 39
0
 62
0
  0
LINE
  8
default
  6
CONTINUOUS
 10
82.550259
 20
76.537189
 11
82.300307
 21
76.180213
 39
0
 62
0
  0
LINE
  8
default
  6
CONTINUOUS
 10
82.300307
 20
76.180213
 11
82.116145
 21
75.785259
 39
0
 62
0
  0
LINE
  8
default
  6
CONTINUOUS
 10
82.116145
 20
75.785259
 11
82.003347
 21
75.364330
 39
0
 62
0
  0
LINE
  8
default
  6
CONTINUOUS
 10
82.003347
 20
75.364330
 11
81.965369
 21
74.930216
 39
0
 62
0
  0
LINE
  8
default
  6
CONTINUOUS
 10
81.965369
 20
74.930216
 11
82.003347
 21
74.496093
 39
0
 62
0
  0
LINE
  8
default
  6
CONTINUOUS
 10
82.003347
 20
74.496093
 11
82.116145
 21
74.075164
 39
0
 62
0
  0
LINE
  8
default
  6
CONTINUOUS
 10
82.116145
 20
74.075164
 11
82.300307
 21
73.680210
 39
0
 62
0
  0
LINE
  8
default
  6
CONTINUOUS
 10
82.300307
 20
73.680210
 11
82.550259
 21
73.323251
 39
0
 62
0
  0
LINE
  8
default
  6
CONTINUOUS
 10
82.550259
 20
73.323251
 11
82.858408
 21
73.015107
 39
0
 62
0
  0
LINE
  8
default
  6
CONTINUOUS
 10
82.858408
 20
73.015107
 11
83.215366
 21
72.765150
 39
0
 62
0
  0
LINE
  8
default
  6
CONTINUOUS
 10
83.215366
 20
72.765150
 11
83.610321
 21
72.580984
 39
0
 62
0
  0
LINE
  8
default
  6
CONTINUOUS
 10
83.610321
 20
72.580984
 11
84.031250
 21
72.468191
 39
0
 62
0
  0
LINE
  8
default
  6
CONTINUOUS
 10
84.031250
 20
72.468191
 11
84.465372
 21
72.430212
 39
0
 62
0
  0
LINE
  8
default
  6
CONTINUOUS
 10
84.465372
 20
72.430212
 11
84.899486
 21
72.468191
 39
0
 62
0
  0
LINE
  8
default
  6
CONTINUOUS
 10
84.899486
 20
72.468191
 11
85.320416
 21
72.580984
 39
0
 62
0
  0
LINE
  8
default
  6
CONTINUOUS
 10
85.320416
 20
72.580984
 11
85.715370
 21
72.765150
 39
0
 62
0
  0
LINE
  8
default
  6
CONTINUOUS
 10
85.715370
 20
72.765150
 11
86.072346
 21
73.015107
 39
0
 62
0
  0
LINE
  8
default
  6
CONTINUOUS
 10
86.072346
 20
73.015107
 11
86.380486
 21
73.323251
 39
0
 62
0
  0
LINE
  8
default
  6
CONTINUOUS
 10
86.380486
 20
73.323251
 11
86.630438
 21
73.680210
 39
0
 62
0
  0
LINE
  8
default
  6
CONTINUOUS
 10
86.630438
 20
73.680210
 11
86.814608
 21
74.075164
 39
0
 62
0
  0
LINE
  8
default
  6
CONTINUOUS
 10
86.814608
 20
74.075164
 11
86.927389
 21
74.496093
 39
0
 62
0
  0
LINE
  8
default
  6
CONTINUOUS
 10
93.400793
 20
73.113950
 11
92.347949
 21
76.161998
 39
0
 62
0
  0
LINE
  8
default
  6
CONTINUOUS
 10
92.347949
 20
76.161998
 11
90.781797
 21
78.980912
 39
0
 62
0
  0
LINE
  8
default
  6
CONTINUOUS
 10
90.781797
 20
78.980912
 11
88.749949
 21
81.485036
 39
0
 62
0
  0
LINE
  8
default
  6
CONTINUOUS
 10
88.749949
 20
81.485036
 11
86.314118
 21
83.598300
 39
0
 62
0
  0
LINE
  8
default
  6
CONTINUOUS
 10
86.314118
 20
83.598300
 11
83.548336
 21
85.256480
 39
0
 62
0
  0
LINE
  8
default
  6
CONTINUOUS
 10
83.548336
 20
85.256480
 11
80.929962
 21
86.292088
 39
0
 62
0
  0
LINE
  8
default
  6
CONTINUOUS
 10
78.708554
 20
99.294783
 11
77.492090
 21
99.401212
 39
0
 62
0
  0
LINE
  8
default
  6
CONTINUOUS
 10
77.492090
 20
99.401212
 11
76.275627
 21
99.294783
 39
0
 62
0
  0
LINE
  8
default
  6
CONTINUOUS
 10
76.275627
 20
99.294783
 11
75.096119
 21
98.978734
 39
0
 62
0
  0
LINE
  8
default
  6
CONTINUOUS
 10
75.096119
 20
98.978734
 11
73.989417
 21
98.462679
 39
0
 62
0
  0
LINE
  8
default
  6
CONTINUOUS
 10
73.989417
 20
98.462679
 11
72.989145
 21
97.762279
 39
0
 62
0
  0
LINE
  8
default
  6
CONTINUOUS
 10
72.989145
 20
97.762279
 11
72.125685
 21
96.898820
 39
0
 62
0
  0
LINE
  8
default
  6
CONTINUOUS
 10
72.125685
 20
96.898820
 11
71.425277
 21
95.898539
 39
0
 62
0
  0
LINE
  8
default
  6
CONTINUOUS
 10
71.425277
 20
95.898539
 11
70.909218
 21
94.791837
 39
0
 62
0
  0
LINE
  8
default
  6
CONTINUOUS
 10
70.909218
 20
94.791837
 11
70.593169
 21
93.612338
 39
0
 62
0
  0
LINE
  8
default
  6
CONTINUOUS
 10
70.593169
 20
93.612338
 11
70.486740
 21
92.395866
 39
0
 62
0
  0
LINE
  8
default
  6
CONTINUOUS
 10
70.486740
 20
92.395866
 11
70.593169
 21
91.179394
 39
0
 62
0
  0
LINE
  8
default
  6
CONTINUOUS
 10
70.593169
 20
91.179394
 11
70.909218
 21
89.999894
 39
0
 62
0
  0
LINE
  8
default
  6
CONTINUOUS
 10
70.909218
 20
89.999894
 11
71.425277
 21
88.893184
 39
0
 62
0
  0
LINE
  8
default
  6
CONTINUOUS
 10
71.425277
 20
88.893184
 11
72.125685
 21
87.892911
 39
0
 62
0
  0
LINE
  8
default
  6
CONTINUOUS
 10
72.125685
 20
87.892911
 11
72.989145
 21
87.029461
 39
0
 62
0
  0
LINE
  8
default
  6
CONTINUOUS
 10
72.989145
 20
87.029461
 11
73.989417
 21
86.329052
 39
0
 62
0
  0
LINE
  8
default
  6
CONTINUOUS
 10
73.989417
 20
86.329052
 11
75.096119
 21
85.812989
 39
0
 62
0
  0
LINE
  8
default
  6
CONTINUOUS
 10
75.096119
 20
85.812989
 11
76.275627
 21
85.496948
 39
0
 62
0
  0
LINE
  8
default
  6
CONTINUOUS
 10
76.275627
 20
85.496948
 11
77.492090
 21
85.390519
 39
0
 62
0
  0
LINE
  8
default
  6
CONTINUOUS
 10
77.492090
 20
85.390519
 11
78.708554
 21
85.496948
 39
0
 62
0
  0
LINE
  8
default
  6
CONTINUOUS
 10
78.708554
 20
85.496948
 11
79.888062
 21
85.812989
 39
0
 62
0
  0
LINE
  8
default
  6
CONTINUOUS
 10
79.888062
 20
85.812989
 11
80.929962
 21
86.292097
 39
0
 62
0
  0
LINE
  8
default
  6
CONTINUOUS
 10
91.014138
 20
64.892066
 11
91.425243
 21
67.650583
 39
0
 62
0
  0
LINE
  8
default
  6
CONTINUOUS
 10
91.425243
 20
67.650583
 11
91.351123
 21
70.438582
 39
0
 62
0
  0
LINE
  8
default
  6
CONTINUOUS
 10
91.351123
 20
70.438582
 11
90.793975
 21
73.171347
 39
0
 62
0
  0
LINE
  8
default
  6
CONTINUOUS
 10
90.793975
 20
73.171347
 11
89.770755
 21
75.765854
 39
0
 62
0
  0
LINE
  8
default
  6
CONTINUOUS
 10
89.770755
 20
75.765854
 11
88.312554
 21
78.143261
 39
0
 62
0
  0
LINE
  8
default
  6
CONTINUOUS
 10
88.312554
 20
78.143261
 11
86.463669
 21
80.231338
 39
0
 62
0
  0
LINE
  8
default
  6
CONTINUOUS
 10
86.463669
 20
80.231338
 11
84.280284
 21
81.966638
 39
0
 62
0
  0
LINE
  8
default
  6
CONTINUOUS
 10
84.280284
 20
81.966638
 11
81.828731
 21
83.296432
 39
0
 62
0
  0
LINE
  8
default
  6
CONTINUOUS
 10
81.828731
 20
83.296432
 11
81.087317
 21
83.596646
 39
0
 62
0
  0
LINE
  8
default
  6
CONTINUOUS
 10
33.356742
 20
65.690225
 11
32.993354
 21
67.751097
 39
0
 62
0
  0
LINE
  8
default
  6
CONTINUOUS
 10
32.993354
 20
67.751097
 11
32.277617
 21
69.717566
 39
0
 62
0
  0
LINE
  8
default
  6
CONTINUOUS
 10
32.277617
 20
69.717566
 11
31.231278
 21
71.529868
 39
0
 62
0
  0
LINE
  8
default
  6
CONTINUOUS
 10
31.231278
 20
71.529868
 11
29.886140
 21
73.132948
 39
0
 62
0
  0
LINE
  8
default
  6
CONTINUOUS
 10
29.886140
 20
73.132948
 11
28.283062
 21
74.478088
 39
0
 62
0
  0
LINE
  8
default
  6
CONTINUOUS
 10
28.283062
 20
74.478088
 11
26.470753
 21
75.524432
 39
0
 62
0
  0
LINE
  8
default
  6
CONTINUOUS
 10
26.470753
 20
75.524432
 11
24.504289
 21
76.240160
 39
0
 62
0
  0
LINE
  8
default
  6
CONTINUOUS
 10
24.504289
 20
76.240160
 11
22.443412
 21
76.603548
 39
0
 62
0
  0
LINE
  8
default
  6
CONTINUOUS
 10
22.443412
 20
76.603548
 11
20.350743
 21
76.603548
 39
0
 62
0
  0
LINE
  8
default
  6
CONTINUOUS
 10
20.350743
 20
76.603548
 11
18.289865
 21
76.240160
 39
0
 62
0
  0
LINE
  8
default
  6
CONTINUOUS
 10
18.289865
 20
76.240160
 11
16.323398
 21
75.524432
 39
0
 62
0
  0
LINE
  8
default
  6
CONTINUOUS
 10
16.323398
 20
75.524432
 11
14.511093
 21
74.478088
 39
0
 62
0
  0
LINE
  8
default
  6
CONTINUOUS
 10
14.511093
 20
74.478088
 11
12.908015
 21
73.132948
 39
0
 62
0
  0
LINE
  8
default
  6
CONTINUOUS
 10
12.908015
 20
73.132948
 11
11.562873
 21
71.529868
 39
0
 62
0
  0
LINE
  8
default
  6
CONTINUOUS
 10
11.562873
 20
71.529868
 11
10.516536
 21
69.717566
 39
0
 62
0
  0
LINE
  8
default
  6
CONTINUOUS
 10
10.516536
 20
69.717566
 11
9.800802
 21
67.751097
 39
0
 62
0
  0
LINE
  8
default
  6
CONTINUOUS
 10
9.800802
 20
67.751097
 11
9.437414
 21
65.690225
 39
0
 62
0
  0
LINE
  8
default
  6
CONTINUOUS
 10
9.437414
 20
65.690225
 11
9.437414
 21
63.597551
 39
0
 62
0
  0
LINE
  8
default
  6
CONTINUOUS
 10
9.437414
 20
63.597551
 11
9.800802
 21
61.536674
 39
0
 62
0
  0
LINE
  8
default
  6
CONTINUOUS
 10
9.800802
 20
61.536674
 11
10.516536
 21
59.570206
 39
0
 62
0
  0
LINE
  8
default
  6
CONTINUOUS
 10
10.516536
 20
59.570206
 11
11.225749
 21
58.266382
 39
0
 62
0
  0
LINE
  8
default
  6
CONTINUOUS
 10
6.889670
 20
44.286725
 11
10.269512
 21
44.206609
 39
0
 62
0
  0
LINE
  8
default
  6
CONTINUOUS
 10
10.269512
 20
44.206609
 11
13.611918
 21
44.714614
 39
0
 62
0
  0
LINE
  8
default
  6
CONTINUOUS
 10
13.611918
 20
44.714614
 11
16.815330
 21
45.795306
 39
0
 62
0
  0
LINE
  8
default
  6
CONTINUOUS
 10
16.815330
 20
45.795306
 11
19.782414
 21
47.415848
 39
0
 62
0
  0
LINE
  8
default
  6
CONTINUOUS
 10
19.782414
 20
47.415848
 11
22.423021
 21
49.526995
 39
0
 62
0
  0
LINE
  8
default
  6
CONTINUOUS
 10
22.423021
 20
49.526995
 11
24.656913
 21
52.064610
 39
0
 62
0
  0
LINE
  8
default
  6
CONTINUOUS
 10
24.656913
 20
52.064610
 11
26.416216
 21
54.951584
 39
0
 62
0
  0
LINE
  8
default
  6
CONTINUOUS
 10
26.416216
 20
54.951584
 11
27.647471
 21
58.100194
 39
0
 62
0
  0
LINE
  8
default
  6
CONTINUOUS
 10
27.647471
 20
58.100194
 11
28.313267
 21
61.414778
 39
0
 62
0
  0
LINE
  8
default
  6
CONTINUOUS
 10
28.313267
 20
61.414778
 11
28.393384
 21
64.794623
 39
0
 62
0
  0
LINE
  8
default
  6
CONTINUOUS
 10
28.393384
 20
64.794623
 11
28.358750
 21
65.252944
 39
0
 62
0
  0
LINE
  8
default
  6
CONTINUOUS
 10
4.880265
 20
39.447976
 11
4.451107
 21
39.372299
 39
0
 62
0
  0
LINE
  8
default
  6
CONTINUOUS
 10
4.451107
 20
39.372299
 11
4.041609
 21
39.223255
 39
0
 62
0
  0
LINE
  8
default
  6
CONTINUOUS
 10
4.041609
 20
39.223255
 11
3.664213
 21
39.005367
 39
0
 62
0
  0
LINE
  8
default
  6
CONTINUOUS
 10
3.664213
 20
39.005367
 11
3.330388
 21
38.725254
 39
0
 62
0
  0
LINE
  8
default
  6
CONTINUOUS
 10
3.330388
 20
38.725254
 11
3.050275
 21
38.391431
 39
0
 62
0
  0
LINE
  8
default
  6
CONTINUOUS
 10
3.050275
 20
38.391431
 11
2.832385
 21
38.014036
 39
0
 62
0
  0
LINE
  8
default
  6
CONTINUOUS
 10
2.832385
 20
38.014036
 11
2.683340
 21
37.604528
 39
0
 62
0
  0
LINE
  8
default
  6
CONTINUOUS
 10
2.683340
 20
37.604528
 11
2.607668
 21
37.175375
 39
0
 62
0
  0
LINE
  8
default
  6
CONTINUOUS
 10
2.607668
 20
37.175375
 11
2.607668
 21
36.739599
 39
0
 62
0
  0
LINE
  8
default
  6
CONTINUOUS
 10
2.607668
 20
36.739599
 11
2.683340
 21
36.310439
 39
0
 62
0
  0
LINE
  8
default
  6
CONTINUOUS
 10
2.683340
 20
36.310439
 11
2.832385
 21
35.900940
 39
0
 62
0
  0
LINE
  8
default
  6
CONTINUOUS
 10
2.832385
 20
35.900940
 11
3.050275
 21
35.523545
 39
0
 62
0
  0
LINE
  8
default
  6
CONTINUOUS
 10
3.050275
 20
35.523545
 11
3.330388
 21
35.189720
 39
0
 62
0
  0
LINE
  8
default
  6
CONTINUOUS
 10
3.330388
 20
35.189720
 11
3.664213
 21
34.909607
 39
0
 62
0
  0
LINE
  8
default
  6
CONTINUOUS
 10
3.664213
 20
34.909607
 11
4.041609
 21
34.691714
 39
0
 62
0
  0
LINE
  8
default
  6
CONTINUOUS
 10
4.041609
 20
34.691714
 11
4.451107
 21
34.542670
 39
0
 62
0
  0
LINE
  8
default
  6
CONTINUOUS
 10
4.451107
 20
34.542670
 11
4.880265
 21
34.466998
 39
0
 62
0
  0
LINE
  8
default
  6
CONTINUOUS
 10
4.880265
 20
34.466998
 11
5.316044
 21
34.466998
 39
0
 62
0
  0
LINE
  8
default
  6
CONTINUOUS
 10
5.316044
 20
34.466998
 11
5.745202
 21
34.542670
 39
0
 62
0
  0
LINE
  8
default
  6
CONTINUOUS
 10
5.745202
 20
34.542670
 11
6.154700
 21
34.691714
 39
0
 62
0
  0
LINE
  8
default
  6
CONTINUOUS
 10
6.154700
 20
34.691714
 11
6.532096
 21
34.909607
 39
0
 62
0
  0
LINE
  8
default
  6
CONTINUOUS
 10
6.532096
 20
34.909607
 11
6.865922
 21
35.189720
 39
0
 62
0
  0
LINE
  8
default
  6
CONTINUOUS
 10
6.865922
 20
35.189720
 11
7.146034
 21
35.523545
 39
0
 62
0
  0
LINE
  8
default
  6
CONTINUOUS
 10
7.146034
 20
35.523545
 11
7.363925
 21
35.900940
 39
0
 62
0
  0
LINE
  8
default
  6
CONTINUOUS
 10
7.363925
 20
35.900940
 11
7.512969
 21
36.310439
 39
0
 62
0
  0
LINE
  8
default
  6
CONTINUOUS
 10
7.512969
 20
36.310439
 11
7.588642
 21
36.739599
 39
0
 62
0
  0
LINE
  8
default
  6
CONTINUOUS
 10
7.588642
 20
36.739599
 11
7.588642
 21
37.175375
 39
0
 62
0
  0
LINE
  8
default
  6
CONTINUOUS
 10
7.588642
 20
37.175375
 11
7.512969
 21
37.604528
 39
0
 62
0
  0
LINE
  8
default
  6
CONTINUOUS
 10
7.512969
 20
37.604528
 11
7.363925
 21
38.014036
 39
0
 62
0
  0
LINE
  8
default
  6
CONTINUOUS
 10
7.363925
 20
38.014036
 11
7.146034
 21
38.391431
 39
0
 62
0
  0
LINE
  8
default
  6
CONTINUOUS
 10
7.146034
 20
38.391431
 11
6.865922
 21
38.725254
 39
0
 62
0
  0
LINE
  8
default
  6
CONTINUOUS
 10
6.865922
 20
38.725254
 11
6.532096
 21
39.005367
 39
0
 62
0
  0
LINE
  8
default
  6
CONTINUOUS
 10
6.532096
 20
39.005367
 11
6.154700
 21
39.223255
 39
0
 62
0
  0
LINE
  8
default
  6
CONTINUOUS
 10
6.154700
 20
39.223255
 11
5.745202
 21
39.372299
 39
0
 62
0
  0
LINE
  8
default
  6
CONTINUOUS
 10
5.745202
 20
39.372299
 11
5.316044
 21
39.447976
 39
0
 62
0
  0
LINE
  8
default
  6
CONTINUOUS
 10
5.316044
 20
39.447976
 11
4.880265
 21
39.447976
 39
0
 62
0
  0
LINE
  8
default
  6
CONTINUOUS
 10
16.877183
 20
40.393306
 11
16.448026
 21
40.317634
 39
0
 62
0
  0
LINE
  8
default
  6
CONTINUOUS
 10
16.448026
 20
40.317634
 11
16.038528
 21
40.168590
 39
0
 62
0
  0
LINE
  8
default
  6
CONTINUOUS
 10
16.038528
 20
40.168590
 11
15.661130
 21
39.950702
 39
0
 62
0
  0
LINE
  8
default
  6
CONTINUOUS
 10
15.661130
 20
39.950702
 11
15.327306
 21
39.670588
 39
0
 62
0
  0
LINE
  8
default
  6
CONTINUOUS
 10
15.327306
 20
39.670588
 11
15.047191
 21
39.336762
 39
0
 62
0
  0
LINE
  8
default
  6
CONTINUOUS
 10
15.047191
 20
39.336762
 11
14.829302
 21
38.959366
 39
0
 62
0
  0
LINE
  8
default
  6
CONTINUOUS
 10
14.829302
 20
38.959366
 11
14.680257
 21
38.549867
 39
0
 62
0
  0
LINE
  8
default
  6
CONTINUOUS
 10
14.680257
 20
38.549867
 11
14.604587
 21
38.120714
 39
0
 62
0
  0
LINE
  8
default
  6
CONTINUOUS
 10
14.604587
 20
38.120714
 11
14.604587
 21
37.684934
 39
0
 62
0
  0
LINE
  8
default
  6
CONTINUOUS
 10
14.604587
 20
37.684934
 11
14.680257
 21
37.255776
 39
0
 62
0
  0
LINE
  8
default
  6
CONTINUOUS
 10
14.680257
 20
37.255776
 11
14.829302
 21
36.846277
 39
0
 62
0
  0
LINE
  8
default
  6
CONTINUOUS
 10
14.829302
 20
36.846277
 11
15.047191
 21
36.468879
 39
0
 62
0
  0
LINE
  8
default
  6
CONTINUOUS
 10
15.047191
 20
36.468879
 11
15.327306
 21
36.135055
 39
0
 62
0
  0
LINE
  8
default
  6
CONTINUOUS
 10
15.327306
 20
36.135055
 11
15.661130
 21
35.854941
 39
0
 62
0
  0
LINE
  8
default
  6
CONTINUOUS
 10
15.661130
 20
35.854941
 11
16.038528
 21
35.637051
 39
0
 62
0
  0
LINE
  8
default
  6
CONTINUOUS
 10
16.038528
 20
35.637051
 11
16.448026
 21
35.488007
 39
0
 62
0
  0
LINE
  8
default
  6
CONTINUOUS
 10
16.448026
 20
35.488007
 11
16.877183
 21
35.412335
 39
0
 62
0
  0
LINE
  8
default
  6
CONTINUOUS
 10
16.877183
 20
35.412335
 11
17.312963
 21
35.412335
 39
0
 62
0
  0
LINE
  8
default
  6
CONTINUOUS
 10
17.312963
 20
35.412335
 11
17.742120
 21
35.488007
 39
0
 62
0
  0
LINE
  8
default
  6
CONTINUOUS
 10
17.742120
 20
35.488007
 11
18.151617
 21
35.637051
 39
0
 62
0
  0
LINE
  8
default
  6
CONTINUOUS
 10
18.151617
 20
35.637051
 11
18.529014
 21
35.854941
 39
0
 62
0
  0
LINE
  8
default
  6
CONTINUOUS
 10
18.529014
 20
35.854941
 11
18.862840
 21
36.135055
 39
0
 62
0
  0
LINE
  8
default
  6
CONTINUOUS
 10
18.862840
 20
36.135055
 11
19.142954
 21
36.468879
 39
0
 62
0
  0
LINE
  8
default
  6
CONTINUOUS
 10
19.142954
 20
36.468879
 11
19.360844
 21
36.846277
 39
0
 62
0
  0
LINE
  8
default
  6
CONTINUOUS
 10
19.360844
 20
36.846277
 11
19.509888
 21
37.255776
 39
0
 62
0
  0
LINE
  8
default
  6
CONTINUOUS
 10
19.509888
 20
37.255776
 11
19.585560
 21
37.684934
 39
0
 62
0
  0
LINE
  8
default
  6
CONTINUOUS
 10
19.585560
 20
37.684934
 11
19.585560
 21
38.120714
 39
0
 62
0
  0
LINE
  8
default
  6
CONTINUOUS
 10
19.585560
 20
38.120714
 11
19.509888
 21
38.549867
 39
0
 62
0
  0
LINE
  8
default
  6
CONTINUOUS
 10
19.509888
 20
38.549867
 11
19.360844
 21
38.959366
 39
0
 62
0
  0
LINE
  8
default
  6
CONTINUOUS
 10
19.360844
 20
38.959366
 11
19.142954
 21
39.336762
 39
0
 62
0
  0
LINE
  8
default
  6
CONTINUOUS
 10
19.142954
 20
39.336762
 11
18.862840
 21
39.670588
 39
0
 62
0
  0
LINE
  8
default
  6
CONTINUOUS
 10
18.862840
 20
39.670588
 11
18.529014
 21
39.950702
 39
0
 62
0
  0
LINE
  8
default
  6
CONTINUOUS
 10
18.529014
 20
39.950702
 11
18.151617
 21
40.168590
 39
0
 62
0
  0
LINE
  8
default
  6
CONTINUOUS
 10
18.151617
 20
40.168590
 11
17.742120
 21
40.317634
 39
0
 62
0
  0
LINE
  8
default
  6
CONTINUOUS
 10
17.742120
 20
40.317634
 11
17.312963
 21
40.393306
 39
0
 62
0
  0
LINE
  8
default
  6
CONTINUOUS
 10
17.312963
 20
40.393306
 11
16.877183
 21
40.393306
 39
0
 62
0
  0
LINE
  8
default
  6
CONTINUOUS
 10
27.260911
 20
46.475911
 11
26.831754
 21
46.400239
 39
0
 62
0
  0
LINE
  8
default
  6
CONTINUOUS
 10
26.831754
 20
46.400239
 11
26.422257
 21
46.251191
 39
0
 62
0
  0
LINE
  8
default
  6
CONTINUOUS
 10
26.422257
 20
46.251191
 11
26.044861
 21
46.033303
 39
0
 62
0
  0
LINE
  8
default
  6
CONTINUOUS
 10
26.044861
 20
46.033303
 11
25.711035
 21
45.753189
 39
0
 62
0
  0
LINE
  8
default
  6
CONTINUOUS
 10
25.711035
 20
45.753189
 11
25.430921
 21
45.419362
 39
0
 62
0
  0
LINE
  8
default
  6
CONTINUOUS
 10
25.430921
 20
45.419362
 11
25.213031
 21
45.041967
 39
0
 62
0
  0
LINE
  8
default
  6
CONTINUOUS
 10
25.213031
 20
45.041967
 11
25.063987
 21
44.632468
 39
0
 62
0
  0
LINE
  8
default
  6
CONTINUOUS
 10
25.063987
 20
44.632468
 11
24.988312
 21
44.203306
 39
0
 62
0
  0
LINE
  8
default
  6
CONTINUOUS
 10
24.988312
 20
44.203306
 11
24.988312
 21
43.767530
 39
0
 62
0
  0
LINE
  8
default
  6
CONTINUOUS
 10
24.988312
 20
43.767530
 11
25.063987
 21
43.338372
 39
0
 62
0
  0
LINE
  8
default
  6
CONTINUOUS
 10
25.063987
 20
43.338372
 11
25.213031
 21
42.928878
 39
0
 62
0
  0
LINE
  8
default
  6
CONTINUOUS
 10
25.213031
 20
42.928878
 11
25.430921
 21
42.551478
 39
0
 62
0
  0
LINE
  8
default
  6
CONTINUOUS
 10
25.430921
 20
42.551478
 11
25.711035
 21
42.217656
 39
0
 62
0
  0
LINE
  8
default
  6
CONTINUOUS
 10
25.711035
 20
42.217656
 11
26.044861
 21
41.937542
 39
0
 62
0
  0
LINE
  8
default
  6
CONTINUOUS
 10
26.044861
 20
41.937542
 11
26.422257
 21
41.719654
 39
0
 62
0
  0
LINE
  8
default
  6
CONTINUOUS
 10
26.422257
 20
41.719654
 11
26.831754
 21
41.570606
 39
0
 62
0
  0
LINE
  8
default
  6
CONTINUOUS
 10
26.831754
 20
41.570606
 11
27.260911
 21
41.494938
 39
0
 62
0
  0
LINE
  8
default
  6
CONTINUOUS
 10
27.260911
 20
41.494938
 11
27.696691
 21
41.494938
 39
0
 62
0
  0
LINE
  8
default
  6
CONTINUOUS
 10
27.696691
 20
41.494938
 11
28.125849
 21
41.570606
 39
0
 62
0
  0
LINE
  8
default
  6
CONTINUOUS
 10
28.125849
 20
41.570606
 11
28.535344
 21
41.719654
 39
0
 62
0
  0
LINE
  8
default
  6
CONTINUOUS
 10
28.535344
 20
41.719654
 11
28.912739
 21
41.937542
 39
0
 62
0
  0
LINE
  8
default
  6
CONTINUOUS
 10
28.912739
 20
41.937542
 11
29.246568
 21
42.217656
 39
0
 62
0
  0
LINE
  8
default
  6
CONTINUOUS
 10
29.246568
 20
42.217656
 11
29.526682
 21
42.551478
 39
0
 62
0
  0
LINE
  8
default
  6
CONTINUOUS
 10
29.526682
 20
42.551478
 11
29.744572
 21
42.928878
 39
0
 62
0
  0
LINE
  8
default
  6
CONTINUOUS
 10
29.744572
 20
42.928878
 11
29.893616
 21
43.338372
 39
0
 62
0
  0
LINE
  8
default
  6
CONTINUOUS
 10
29.893616
 20
43.338372
 11
29.969288
 21
43.767530
 39
0
 62
0
  0
LINE
  8
default
  6
CONTINUOUS
 10
29.969288
 20
43.767530
 11
29.969288
 21
44.203306
 39
0
 62
0
  0
LINE
  8
default
  6
CONTINUOUS
 10
29.969288
 20
44.203306
 11
29.893616
 21
44.632468
 39
0
 62
0
  0
LINE
  8
default
  6
CONTINUOUS
 10
29.893616
 20
44.632468
 11
29.744572
 21
45.041967
 39
0
 62
0
  0
LINE
  8
default
  6
CONTINUOUS
 10
29.744572
 20
45.041967
 11
29.526682
 21
45.419362
 39
0
 62
0
  0
LINE
  8
default
  6
CONTINUOUS
 10
29.526682
 20
45.419362
 11
29.246568
 21
45.753189
 39
0
 62
0
  0
LINE
  8
default
  6
CONTINUOUS
 10
29.246568
 20
45.753189
 11
28.912739
 21
46.033303
 39
0
 62
0
  0
LINE
  8
default
  6
CONTINUOUS
 10
28.912739
 20
46.033303
 11
28.535344
 21
46.251191
 39
0
 62
0
  0
LINE
  8
default
  6
CONTINUOUS
 10
28.535344
 20
46.251191
 11
28.125849
 21
46.400239
 39
0
 62
0
  0
LINE
  8
default
  6
CONTINUOUS
 10
28.125849
 20
46.400239
 11
27.696691
 21
46.475911
 39
0
 62
0
  0
LINE
  8
default
  6
CONTINUOUS
 10
27.696691
 20
46.475911
 11
27.260911
 21
46.475911
 39
0
 62
0
  0
LINE
  8
default
  6
CONTINUOUS
 10
33.952527
 20
56.478016
 11
33.523369
 21
56.402343
 39
0
 62
0
  0
LINE
  8
default
  6
CONTINUOUS
 10
33.523369
 20
56.402343
 11
33.113868
 21
56.253295
 39
0
 62
0
  0
LINE
  8
default
  6
CONTINUOUS
 10
33.113868
 20
56.253295
 11
32.736472
 21
56.035407
 39
0
 62
0
  0
LINE
  8
default
  6
CONTINUOUS
 10
32.736472
 20
56.035407
 11
32.402648
 21
55.755294
 39
0
 62
0
  0
LINE
  8
default
  6
CONTINUOUS
 10
32.402648
 20
55.755294
 11
32.122534
 21
55.421467
 39
0
 62
0
  0
LINE
  8
default
  6
CONTINUOUS
 10
32.122534
 20
55.421467
 11
31.904646
 21
55.044071
 39
0
 62
0
  0
LINE
  8
default
  6
CONTINUOUS
 10
31.904646
 20
55.044071
 11
31.755600
 21
54.634572
 39
0
 62
0
  0
LINE
  8
default
  6
CONTINUOUS
 10
31.755600
 20
54.634572
 11
31.679928
 21
54.205419
 39
0
 62
0
  0
LINE
  8
default
  6
CONTINUOUS
 10
31.679928
 20
54.205419
 11
31.679928
 21
53.769639
 39
0
 62
0
  0
LINE
  8
default
  6
CONTINUOUS
 10
31.679928
 20
53.769639
 11
31.755600
 21
53.340481
 39
0
 62
0
  0
LINE
  8
default
  6
CONTINUOUS
 10
31.755600
 20
53.340481
 11
31.904646
 21
52.930982
 39
0
 62
0
  0
LINE
  8
default
  6
CONTINUOUS
 10
31.904646
 20
52.930982
 11
32.122534
 21
52.553587
 39
0
 62
0
  0
LINE
  8
default
  6
CONTINUOUS
 10
32.122534
 20
52.553587
 11
32.402648
 21
52.219760
 39
0
 62
0
  0
LINE
  8
default
  6
CONTINUOUS
 10
32.402648
 20
52.219760
 11
32.736472
 21
51.939647
 39
0
 62
0
  0
LINE
  8
default
  6
CONTINUOUS
 10
32.736472
 20
51.939647
 11
33.113868
 21
51.721750
 39
0
 62
0
  0
LINE
  8
default
  6
CONTINUOUS
 10
33.113868
 20
51.721750
 11
33.523369
 21
51.572706
 39
0
 62
0
  0
LINE
  8
default
  6
CONTINUOUS
 10
33.523369
 20
51.572706
 11
33.952527
 21
51.497038
 39
0
 62
0
  0
LINE
  8
default
  6
CONTINUOUS
 10
33.952527
 20
51.497038
 11
34.388305
 21
51.497038
 39
0
 62
0
  0
LINE
  8
default
  6
CONTINUOUS
 10
34.388305
 20
51.497038
 11
34.817462
 21
51.572706
 39
0
 62
0
  0
LINE
  8
default
  6
CONTINUOUS
 10
34.817462
 20
51.572706
 11
35.226959
 21
51.721750
 39
0
 62
0
  0
LINE
  8
default
  6
CONTINUOUS
 10
35.226959
 20
51.721750
 11
35.604355
 21
51.939647
 39
0
 62
0
  0
LINE
  8
default
  6
CONTINUOUS
 10
35.604355
 20
51.939647
 11
35.938181
 21
52.219760
 39
0
 62
0
  0
LINE
  8
default
  6
CONTINUOUS
 10
35.938181
 20
52.219760
 11
36.218295
 21
52.553587
 39
0
 62
0
  0
LINE
  8
default
  6
CONTINUOUS
 10
36.218295
 20
52.553587
 11
36.436183
 21
52.930982
 39
0
 62
0
  0
LINE
  8
default
  6
CONTINUOUS
 10
36.436183
 20
52.930982
 11
36.585227
 21
53.340481
 39
0
 62
0
  0
LINE
  8
default
  6
CONTINUOUS
 10
36.585227
 20
53.340481
 11
36.660899
 21
53.769639
 39
0
 62
0
  0
LINE
  8
default
  6
CONTINUOUS
 10
36.660899
 20
53.769639
 11
36.660899
 21
54.205419
 39
0
 62
0
  0
LINE
  8
default
  6
CONTINUOUS
 10
36.660899
 20
54.205419
 11
36.585227
 21
54.634572
 39
0
 62
0
  0
LINE
  8
default
  6
CONTINUOUS
 10
36.585227
 20
54.634572
 11
36.436183
 21
55.044071
 39
0
 62
0
  0
LINE
  8
default
  6
CONTINUOUS
 10
36.436183
 20
55.044071
 11
36.218295
 21
55.421467
 39
0
 62
0
  0
LINE
  8
default
  6
CONTINUOUS
 10
36.218295
 20
55.421467
 11
35.938181
 21
55.755294
 39
0
 62
0
  0
LINE
  8
default
  6
CONTINUOUS
 10
35.938181
 20
55.755294
 11
35.604355
 21
56.035407
 39
0
 62
0
  0
LINE
  8
default
  6
CONTINUOUS
 10
35.604355
 20
56.035407
 11
35.226959
 21
56.253295
 39
0
 62
0
  0
LINE
  8
default
  6
CONTINUOUS
 10
35.226959
 20
56.253295
 11
34.817462
 21
56.402343
 39
0
 62
0
  0
LINE
  8
default
  6
CONTINUOUS
 10
34.817462
 20
56.402343
 11
34.388305
 21
56.478016
 39
0
 62
0
  0
LINE
  8
default
  6
CONTINUOUS
 10
34.388305
 20
56.478016
 11
33.952527
 21
56.478016
 39
0
 62
0
  0
LINE
  8
default
  6
CONTINUOUS
 10
35.629341
 20
68.398589
 11
35.200184
 21
68.322921
 39
0
 62
0
  0
LINE
  8
default
  6
CONTINUOUS
 10
35.200184
 20
68.322921
 11
34.790682
 21
68.173873
 39
0
 62
0
  0
LINE
  8
default
  6
CONTINUOUS
 10
34.790682
 20
68.173873
 11
34.413287
 21
67.955985
 39
0
 62
0
  0
LINE
  8
default
  6
CONTINUOUS
 10
34.413287
 20
67.955985
 11
34.079460
 21
67.675871
 39
0
 62
0
  0
LINE
  8
default
  6
CONTINUOUS
 10
34.079460
 20
67.675871
 11
33.799351
 21
67.342049
 39
0
 62
0
  0
LINE
  8
default
  6
CONTINUOUS
 10
33.799351
 20
67.342049
 11
33.581459
 21
66.964653
 39
0
 62
0
  0
LINE
  8
default
  6
CONTINUOUS
 10
33.581459
 20
66.964653
 11
33.432415
 21
66.555154
 39
0
 62
0
  0
LINE
  8
default
  6
CONTINUOUS
 10
33.432415
 20
66.555154
 11
33.356742
 21
66.125992
 39
0
 62
0
  0
LINE
  8
default
  6
CONTINUOUS
 10
33.356742
 20
66.125992
 11
33.356742
 21
65.690216
 39
0
 62
0
  0
LINE
  8
default
  6
CONTINUOUS
 10
33.356742
 20
65.690216
 11
33.432415
 21
65.261054
 39
0
 62
0
  0
LINE
  8
default
  6
CONTINUOUS
 10
33.432415
 20
65.261054
 11
33.581459
 21
64.851564
 39
0
 62
0
  0
LINE
  8
default
  6
CONTINUOUS
 10
33.581459
 20
64.851564
 11
33.799351
 21
64.474160
 39
0
 62
0
  0
LINE
  8
default
  6
CONTINUOUS
 10
33.799351
 20
64.474160
 11
34.079460
 21
64.140333
 39
0
 62
0
  0
LINE
  8
default
  6
CONTINUOUS
 10
34.079460
 20
64.140333
 11
34.413287
 21
63.860224
 39
0
 62
0
  0
LINE
  8
default
  6
CONTINUOUS
 10
34.413287
 20
63.860224
 11
34.790682
 21
63.642332
 39
0
 62
0
  0
LINE
  8
default
  6
CONTINUOUS
 10
34.790682
 20
63.642332
 11
35.200184
 21
63.493288
 39
0
 62
0
  0
LINE
  8
default
  6
CONTINUOUS
 10
35.200184
 20
63.493288
 11
35.629341
 21
63.417615
 39
0
 62
0
  0
LINE
  8
default
  6
CONTINUOUS
 10
35.629341
 20
63.417615
 11
36.065119
 21
63.417615
 39
0
 62
0
  0
LINE
  8
default
  6
CONTINUOUS
 10
36.065119
 20
63.417615
 11
36.494277
 21
63.493288
 39
0
 62
0
  0
LINE
  8
default
  6
CONTINUOUS
 10
36.494277
 20
63.493288
 11
36.903774
 21
63.642332
 39
0
 62
0
  0
LINE
  8
default
  6
CONTINUOUS
 10
36.903774
 20
63.642332
 11
37.281169
 21
63.860224
 39
0
 62
0
  0
LINE
  8
default
  6
CONTINUOUS
 10
37.281169
 20
63.860224
 11
37.614996
 21
64.140333
 39
0
 62
0
  0
LINE
  8
default
  6
CONTINUOUS
 10
37.614996
 20
64.140333
 11
37.895105
 21
64.474160
 39
0
 62
0
  0
LINE
  8
default
  6
CONTINUOUS
 10
37.895105
 20
64.474160
 11
38.112993
 21
64.851564
 39
0
 62
0
  0
LINE
  8
default
  6
CONTINUOUS
 10
38.112993
 20
64.851564
 11
38.262037
 21
65.261054
 39
0
 62
0
  0
LINE
  8
default
  6
CONTINUOUS
 10
38.262037
 20
65.261054
 11
38.337714
 21
65.690216
 39
0
 62
0
  0
LINE
  8
default
  6
CONTINUOUS
 10
38.337714
 20
65.690216
 11
38.337714
 21
66.125992
 39
0
 62
0
  0
LINE
  8
default
  6
CONTINUOUS
 10
38.337714
 20
66.125992
 11
38.262037
 21
66.555154
 39
0
 62
0
  0
LINE
  8
default
  6
CONTINUOUS
 10
38.262037
 20
66.555154
 11
38.112993
 21
66.964653
 39
0
 62
0
  0
LINE
  8
default
  6
CONTINUOUS
 10
38.112993
 20
66.964653
 11
37.895105
 21
67.342049
 39
0
 62
0
  0
LINE
  8
default
  6
CONTINUOUS
 10
37.895105
 20
67.342049
 11
37.614996
 21
67.675871
 39
0
 62
0
  0
LINE
  8
default
  6
CONTINUOUS
 10
37.614996
 20
67.675871
 11
37.281169
 21
67.955985
 39
0
 62
0
  0
LINE
  8
default
  6
CONTINUOUS
 10
37.281169
 20
67.955985
 11
36.903774
 21
68.173873
 39
0
 62
0
  0
LINE
  8
default
  6
CONTINUOUS
 10
36.903774
 20
68.173873
 11
36.494277
 21
68.322921
 39
0
 62
0
  0
LINE
  8
default
  6
CONTINUOUS
 10
36.494277
 20
68.322921
 11
36.065119
 21
68.398589
 39
0
 62
0
  0
LINE
  8
default
  6
CONTINUOUS
 10
36.065119
 20
68.398589
 11
35.629341
 21
68.398589
 39
0
 62
0
  0
LINE
  8
default
  6
CONTINUOUS
 10
28.805823
 20
77.362583
 11
28.555875
 21
77.005607
 39
0
 62
0
  0
LINE
  8
default
  6
CONTINUOUS
 10
28.555875
 20
77.005607
 11
28.371707
 21
76.610652
 39
0
 62
0
  0
LINE
  8
default
  6
CONTINUOUS
 10
28.371707
 20
76.610652
 11
28.258918
 21
76.189723
 39
0
 62
0
  0
LINE
  8
default
  6
CONTINUOUS
 10
28.258918
 20
76.189723
 11
28.220937
 21
75.755609
 39
0
 62
0
  0
LINE
  8
default
  6
CONTINUOUS
 10
28.220937
 20
75.755609
 11
28.258918
 21
75.321487
 39
0
 62
0
  0
LINE
  8
default
  6
CONTINUOUS
 10
28.258918
 20
75.321487
 11
28.371707
 21
74.900558
 39
0
 62
0
  0
LINE
  8
default
  6
CONTINUOUS
 10
28.371707
 20
74.900558
 11
28.555875
 21
74.505603
 39
0
 62
0
  0
LINE
  8
default
  6
CONTINUOUS
 10
28.555875
 20
74.505603
 11
28.805823
 21
74.148645
 39
0
 62
0
  0
LINE
  8
default
  6
CONTINUOUS
 10
28.805823
 20
74.148645
 11
29.113970
 21
73.840496
 39
0
 62
0
  0
LINE
  8
default
  6
CONTINUOUS
 10
29.113970
 20
73.840496
 11
29.470937
 21
73.590544
 39
0
 62
0
  0
LINE
  8
default
  6
CONTINUOUS
 10
29.470937
 20
73.590544
 11
29.865889
 21
73.406382
 39
0
 62
0
  0
LINE
  8
default
  6
CONTINUOUS
 10
29.865889
 20
73.406382
 11
30.286818
 21
73.293584
 39
0
 62
0
  0
LINE
  8
default
  6
CONTINUOUS
 10
30.286818
 20
73.293584
 11
30.720936
 21
73.255606
 39
0
 62
0
  0
LINE
  8
default
  6
CONTINUOUS
 10
30.720936
 20
73.255606
 11
31.155059
 21
73.293584
 39
0
 62
0
  0
LINE
  8
default
  6
CONTINUOUS
 10
31.155059
 20
73.293584
 11
31.575988
 21
73.406382
 39
0
 62
0
  0
LINE
  8
default
  6
CONTINUOUS
 10
31.575988
 20
73.406382
 11
31.970938
 21
73.590544
 39
0
 62
0
  0
LINE
  8
default
  6
CONTINUOUS
 10
31.970938
 20
73.590544
 11
32.327907
 21
73.840496
 39
0
 62
0
  0
LINE
  8
default
  6
CONTINUOUS
 10
32.327907
 20
73.840496
 11
32.636050
 21
74.148645
 39
0
 62
0
  0
LINE
  8
default
  6
CONTINUOUS
 10
32.636050
 20
74.148645
 11
32.886002
 21
74.505603
 39
0
 62
0
  0
LINE
  8
default
  6
CONTINUOUS
 10
32.886002
 20
74.505603
 11
33.070170
 21
74.900558
 39
0
 62
0
  0
LINE
  8
default
  6
CONTINUOUS
 10
33.070170
 20
74.900558
 11
33.182957
 21
75.321487
 39
0
 62
0
  0
LINE
  8
default
  6
CONTINUOUS
 10
33.182957
 20
75.321487
 11
33.220940
 21
75.755609
 39
0
 62
0
  0
LINE
  8
default
  6
CONTINUOUS
 10
33.220940
 20
75.755609
 11
33.182957
 21
76.189723
 39
0
 62
0
  0
LINE
  8
default
  6
CONTINUOUS
 10
33.182957
 20
76.189723
 11
33.070170
 21
76.610652
 39
0
 62
0
  0
LINE
  8
default
  6
CONTINUOUS
 10
33.070170
 20
76.610652
 11
32.886002
 21
77.005607
 39
0
 62
0
  0
LINE
  8
default
  6
CONTINUOUS
 10
32.886002
 20
77.005607
 11
32.636050
 21
77.362583
 39
0
 62
0
  0
LINE
  8
default
  6
CONTINUOUS
 10
32.636050
 20
77.362583
 11
32.327907
 21
77.670723
 39
0
 62
0
  0
LINE
  8
default
  6
CONTINUOUS
 10
32.327907
 20
77.670723
 11
31.970938
 21
77.920666
 39
0
 62
0
  0
LINE
  8
default
  6
CONTINUOUS
 10
31.970938
 20
77.920666
 11
31.575988
 21
78.104845
 39
0
 62
0
  0
LINE
  8
default
  6
CONTINUOUS
 10
31.575988
 20
78.104845
 11
31.155059
 21
78.217626
 39
0
 62
0
  0
LINE
  8
default
  6
CONTINUOUS
 10
31.155059
 20
78.217626
 11
30.720936
 21
78.255604
 39
0
 62
0
  0
LINE
  8
default
  6
CONTINUOUS
 10
30.720936
 20
78.255604
 11
30.286818
 21
78.217626
 39
0
 62
0
  0
LINE
  8
default
  6
CONTINUOUS
 10
30.286818
 20
78.217626
 11
29.865889
 21
78.104845
 39
0
 62
0
  0
LINE
  8
default
  6
CONTINUOUS
 10
29.865889
 20
78.104845
 11
29.470937
 21
77.920666
 39
0
 62
0
  0
LINE
  8
default
  6
CONTINUOUS
 10
29.470937
 20
77.920666
 11
29.113970
 21
77.670723
 39
0
 62
0
  0
LINE
  8
default
  6
CONTINUOUS
 10
29.113970
 20
77.670723
 11
28.805823
 21
77.362583
 39
0
 62
0
  0
LINE
  8
default
  6
CONTINUOUS
 10
17.642368
 20
78.876145
 11
17.718040
 21
78.446983
 39
0
 62
0
  0
LINE
  8
default
  6
CONTINUOUS
 10
17.718040
 20
78.446983
 11
17.867084
 21
78.037480
 39
0
 62
0
  0
LINE
  8
default
  6
CONTINUOUS
 10
17.867084
 20
78.037480
 11
18.084972
 21
77.660093
 39
0
 62
0
  0
LINE
  8
default
  6
CONTINUOUS
 10
18.084972
 20
77.660093
 11
18.365088
 21
77.326266
 39
0
 62
0
  0
LINE
  8
default
  6
CONTINUOUS
 10
18.365088
 20
77.326266
 11
18.698910
 21
77.046148
 39
0
 62
0
  0
LINE
  8
default
  6
CONTINUOUS
 10
18.698910
 20
77.046148
 11
19.076308
 21
76.828260
 39
0
 62
0
  0
LINE
  8
default
  6
CONTINUOUS
 10
19.076308
 20
76.828260
 11
19.485807
 21
76.679216
 39
0
 62
0
  0
LINE
  8
default
  6
CONTINUOUS
 10
19.485807
 20
76.679216
 11
19.914965
 21
76.603548
 39
0
 62
0
  0
LINE
  8
default
  6
CONTINUOUS
 10
19.914965
 20
76.603548
 11
20.350743
 21
76.603548
 39
0
 62
0
  0
LINE
  8
default
  6
CONTINUOUS
 10
20.350743
 20
76.603548
 11
20.779898
 21
76.679216
 39
0
 62
0
  0
LINE
  8
default
  6
CONTINUOUS
 10
20.779898
 20
76.679216
 11
21.189399
 21
76.828260
 39
0
 62
0
  0
LINE
  8
default
  6
CONTINUOUS
 10
21.189399
 20
76.828260
 11
21.566795
 21
77.046148
 39
0
 62
0
  0
LINE
  8
default
  6
CONTINUOUS
 10
21.566795
 20
77.046148
 11
21.900621
 21
77.326266
 39
0
 62
0
  0
LINE
  8
default
  6
CONTINUOUS
 10
21.900621
 20
77.326266
 11
22.180735
 21
77.660093
 39
0
 62
0
  0
LINE
  8
default
  6
CONTINUOUS
 10
22.180735
 20
77.660093
 11
22.398623
 21
78.037480
 39
0
 62
0
  0
LINE
  8
default
  6
CONTINUOUS
 10
22.398623
 20
78.037480
 11
22.547667
 21
78.446983
 39
0
 62
0
  0
LINE
  8
default
  6
CONTINUOUS
 10
22.547667
 20
78.446983
 11
22.623342
 21
78.876145
 39
0
 62
0
  0
LINE
  8
default
  6
CONTINUOUS
 10
22.623342
 20
78.876145
 11
22.623342
 21
79.311921
 39
0
 62
0
  0
LINE
  8
default
  6
CONTINUOUS
 10
22.623342
 20
79.311921
 11
22.547667
 21
79.741083
 39
0
 62
0
  0
LINE
  8
default
  6
CONTINUOUS
 10
22.547667
 20
79.741083
 11
22.398623
 21
80.150578
 39
0
 62
0
  0
LINE
  8
default
  6
CONTINUOUS
 10
22.398623
 20
80.150578
 11
22.180735
 21
80.527964
 39
0
 62
0
  0
LINE
  8
default
  6
CONTINUOUS
 10
22.180735
 20
80.527964
 11
21.900621
 21
80.861800
 39
0
 62
0
  0
LINE
  8
default
  6
CONTINUOUS
 10
21.900621
 20
80.861800
 11
21.566795
 21
81.141918
 39
0
 62
0
  0
LINE
  8
default
  6
CONTINUOUS
 10
21.566795
 20
81.141918
 11
21.189399
 21
81.359806
 39
0
 62
0
  0
LINE
  8
default
  6
CONTINUOUS
 10
21.189399
 20
81.359806
 11
20.779898
 21
81.508850
 39
0
 62
0
  0
LINE
  8
default
  6
CONTINUOUS
 10
20.779898
 20
81.508850
 11
20.350743
 21
81.584518
 39
0
 62
0
  0
LINE
  8
default
  6
CONTINUOUS
 10
20.350743
 20
81.584518
 11
19.914965
 21
81.584518
 39
0
 62
0
  0
LINE
  8
default
  6
CONTINUOUS
 10
19.914965
 20
81.584518
 11
19.485807
 21
81.508850
 39
0
 62
0
  0
LINE
  8
default
  6
CONTINUOUS
 10
19.485807
 20
81.508850
 11
19.076308
 21
81.359806
 39
0
 62
0
  0
LINE
  8
default
  6
CONTINUOUS
 10
19.076308
 20
81.359806
 11
18.698910
 21
81.141918
 39
0
 62
0
  0
LINE
  8
default
  6
CONTINUOUS
 10
18.698910
 20
81.141918
 11
18.365088
 21
80.861800
 39
0
 62
0
  0
LINE
  8
default
  6
CONTINUOUS
 10
18.365088
 20
80.861800
 11
18.084972
 21
80.527964
 39
0
 62
0
  0
LINE
  8
default
  6
CONTINUOUS
 10
18.084972
 20
80.527964
 11
17.867084
 21
80.150578
 39
0
 62
0
  0
LINE
  8
default
  6
CONTINUOUS
 10
17.867084
 20
80.150578
 11
17.718040
 21
79.741083
 39
0
 62
0
  0
LINE
  8
default
  6
CONTINUOUS
 10
17.718040
 20
79.741083
 11
17.642368
 21
79.311921
 39
0
 62
0
  0
LINE
  8
default
  6
CONTINUOUS
 10
17.642368
 20
79.311921
 11
17.642368
 21
78.876145
 39
0
 62
0
  0
LINE
  8
default
  6
CONTINUOUS
 10
8.678368
 20
72.052629
 11
9.035336
 21
71.802672
 39
0
 62
0
  0
LINE
  8
default
  6
CONTINUOUS
 10
9.035336
 20
71.802672
 11
9.430286
 21
71.618506
 39
0
 62
0
  0
LINE
  8
default
  6
CONTINUOUS
 10
9.430286
 20
71.618506
 11
9.851217
 21
71.505713
 39
0
 62
0
  0
LINE
  8
default
  6
CONTINUOUS
 10
9.851217
 20
71.505713
 11
10.285337
 21
71.467735
 39
0
 62
0
  0
LINE
  8
default
  6
CONTINUOUS
 10
10.285337
 20
71.467735
 11
10.719456
 21
71.505713
 39
0
 62
0
  0
LINE
  8
default
  6
CONTINUOUS
 10
10.719456
 20
71.505713
 11
11.140385
 21
71.618506
 39
0
 62
0
  0
LINE
  8
default
  6
CONTINUOUS
 10
11.140385
 20
71.618506
 11
11.535337
 21
71.802672
 39
0
 62
0
  0
LINE
  8
default
  6
CONTINUOUS
 10
11.535337
 20
71.802672
 11
11.892305
 21
72.052629
 39
0
 62
0
  0
LINE
  8
default
  6
CONTINUOUS
 10
11.892305
 20
72.052629
 11
12.200448
 21
72.360769
 39
0
 62
0
  0
LINE
  8
default
  6
CONTINUOUS
 10
12.200448
 20
72.360769
 11
12.450400
 21
72.717736
 39
0
 62
0
  0
LINE
  8
default
  6
CONTINUOUS
 10
12.450400
 20
72.717736
 11
12.634568
 21
73.112686
 39
0
 62
0
  0
LINE
  8
default
  6
CONTINUOUS
 10
12.634568
 20
73.112686
 11
12.747356
 21
73.533615
 39
0
 62
0
  0
LINE
  8
default
  6
CONTINUOUS
 10
12.747356
 20
73.533615
 11
12.785337
 21
73.967738
 39
0
 62
0
  0
LINE
  8
default
  6
CONTINUOUS
 10
12.785337
 20
73.967738
 11
12.747356
 21
74.401852
 39
0
 62
0
  0
LINE
  8
default
  6
CONTINUOUS
 10
12.747356
 20
74.401852
 11
12.634568
 21
74.822781
 39
0
 62
0
  0
LINE
  8
default
  6
CONTINUOUS
 10
12.634568
 20
74.822781
 11
12.450400
 21
75.217735
 39
0
 62
0
  0
LINE
  8
default
  6
CONTINUOUS
 10
12.450400
 20
75.217735
 11
12.200448
 21
75.574702
 39
0
 62
0
  0
LINE
  8
default
  6
CONTINUOUS
 10
12.200448
 20
75.574702
 11
11.892305
 21
75.882851
 39
0
 62
0
  0
LINE
  8
default
  6
CONTINUOUS
 10
11.892305
 20
75.882851
 11
11.535337
 21
76.132804
 39
0
 62
0
  0
LINE
  8
default
  6
CONTINUOUS
 10
11.535337
 20
76.132804
 11
11.140385
 21
76.316974
 39
0
 62
0
  0
LINE
  8
default
  6
CONTINUOUS
 10
11.140385
 20
76.316974
 11
10.719456
 21
76.429754
 39
0
 62
0
  0
LINE
  8
default
  6
CONTINUOUS
 10
10.719456
 20
76.429754
 11
10.285337
 21
76.467733
 39
0
 62
0
  0
LINE
  8
default
  6
CONTINUOUS
 10
10.285337
 20
76.467733
 11
9.851217
 21
76.429754
 39
0
 62
0
  0
LINE
  8
default
  6
CONTINUOUS
 10
9.851217
 20
76.429754
 11
9.430286
 21
76.316974
 39
0
 62
0
  0
LINE
  8
default
  6
CONTINUOUS
 10
9.430286
 20
76.316974
 11
9.035336
 21
76.132804
 39
0
 62
0
  0
LINE
  8
default
  6
CONTINUOUS
 10
9.035336
 20
76.132804
 11
8.678368
 21
75.882851
 39
0
 62
0
  0
LINE
  8
default
  6
CONTINUOUS
 10
8.678368
 20
75.882851
 11
8.370226
 21
75.574702
 39
0
 62
0
  0
LINE
  8
default
  6
CONTINUOUS
 10
8.370226
 20
75.574702
 11
8.120274
 21
75.217735
 39
0
 62
0
  0
LINE
  8
default
  6
CONTINUOUS
 10
8.120274
 20
75.217735
 11
7.936105
 21
74.822781
 39
0
 62
0
  0
LINE
  8
default
  6
CONTINUOUS
 10
7.936105
 20
74.822781
 11
7.823317
 21
74.401852
 39
0
 62
0
  0
LINE
  8
default
  6
CONTINUOUS
 10
7.823317
 20
74.401852
 11
7.785337
 21
73.967738
 39
0
 62
0
  0
LINE
  8
default
  6
CONTINUOUS
 10
7.785337
 20
73.967738
 11
7.823317
 21
73.533615
 39
0
 62
0
  0
LINE
  8
default
  6
CONTINUOUS
 10
7.823317
 20
73.533615
 11
7.936105
 21
73.112686
 39
0
 62
0
  0
LINE
  8
default
  6
CONTINUOUS
 10
7.936105
 20
73.112686
 11
8.120274
 21
72.717736
 39
0
 62
0
  0
LINE
  8
default
  6
CONTINUOUS
 10
8.120274
 20
72.717736
 11
8.370226
 21
72.360769
 39
0
 62
0
  0
LINE
  8
default
  6
CONTINUOUS
 10
8.370226
 20
72.360769
 11
8.678368
 21
72.052629
 39
0
 62
0
  0
LINE
  8
default
  6
CONTINUOUS
 10
7.164816
 20
60.889174
 11
7.593974
 21
60.964846
 39
0
 62
0
  0
LINE
  8
default
  6
CONTINUOUS
 10
7.593974
 20
60.964846
 11
8.003473
 21
61.113890
 39
0
 62
0
  0
LINE
  8
default
  6
CONTINUOUS
 10
8.003473
 20
61.113890
 11
8.380867
 21
61.331783
 39
0
 62
0
  0
LINE
  8
default
  6
CONTINUOUS
 10
8.380867
 20
61.331783
 11
8.714693
 21
61.611896
 39
0
 62
0
  0
LINE
  8
default
  6
CONTINUOUS
 10
8.714693
 20
61.611896
 11
8.994806
 21
61.945719
 39
0
 62
0
  0
LINE
  8
default
  6
CONTINUOUS
 10
8.994806
 20
61.945719
 11
9.212696
 21
62.323114
 39
0
 62
0
  0
LINE
  8
default
  6
CONTINUOUS
 10
9.212696
 20
62.323114
 11
9.361741
 21
62.732617
 39
0
 62
0
  0
LINE
  8
default
  6
CONTINUOUS
 10
9.361741
 20
62.732617
 11
9.437413
 21
63.161775
 39
0
 62
0
  0
LINE
  8
default
  6
CONTINUOUS
 10
9.437413
 20
63.161775
 11
9.437413
 21
63.597551
 39
0
 62
0
  0
LINE
  8
default
  6
CONTINUOUS
 10
9.437413
 20
63.597551
 11
9.361741
 21
64.026709
 39
0
 62
0
  0
LINE
  8
default
  6
CONTINUOUS
 10
9.361741
 20
64.026709
 11
9.212696
 21
64.436212
 39
0
 62
0
  0
LINE
  8
default
  6
CONTINUOUS
 10
9.212696
 20
64.436212
 11
8.994806
 21
64.813608
 39
0
 62
0
  0
LINE
  8
default
  6
CONTINUOUS
 10
8.994806
 20
64.813608
 11
8.714693
 21
65.147430
 39
0
 62
0
  0
LINE
  8
default
  6
CONTINUOUS
 10
8.714693
 20
65.147430
 11
8.380867
 21
65.427543
 39
0
 62
0
  0
LINE
  8
default
  6
CONTINUOUS
 10
8.380867
 20
65.427543
 11
8.003473
 21
65.645431
 39
0
 62
0
  0
LINE
  8
default
  6
CONTINUOUS
 10
8.003473
 20
65.645431
 11
7.593974
 21
65.794480
 39
0
 62
0
  0
LINE
  8
default
  6
CONTINUOUS
 10
7.593974
 20
65.794480
 11
7.164816
 21
65.870148
 39
0
 62
0
  0
LINE
  8
default
  6
CONTINUOUS
 10
7.164816
 20
65.870148
 11
6.729037
 21
65.870148
 39
0
 62
0
  0
LINE
  8
default
  6
CONTINUOUS
 10
6.729037
 20
65.870148
 11
6.299879
 21
65.794480
 39
0
 62
0
  0
LINE
  8
default
  6
CONTINUOUS
 10
6.299879
 20
65.794480
 11
5.890381
 21
65.645431
 39
0
 62
0
  0
LINE
  8
default
  6
CONTINUOUS
 10
5.890381
 20
65.645431
 11
5.512985
 21
65.427543
 39
0
 62
0
  0
LINE
  8
default
  6
CONTINUOUS
 10
5.512985
 20
65.427543
 11
5.179159
 21
65.147430
 39
0
 62
0
  0
LINE
  8
default
  6
CONTINUOUS
 10
5.179159
 20
65.147430
 11
4.899046
 21
64.813608
 39
0
 62
0
  0
LINE
  8
default
  6
CONTINUOUS
 10
4.899046
 20
64.813608
 11
4.681156
 21
64.436212
 39
0
 62
0
  0
LINE
  8
default
  6
CONTINUOUS
 10
4.681156
 20
64.436212
 11
4.532112
 21
64.026709
 39
0
 62
0
  0
LINE
  8
default
  6
CONTINUOUS
 10
4.532112
 20
64.026709
 11
4.456439
 21
63.597551
 39
0
 62
0
  0
LINE
  8
default
  6
CONTINUOUS
 10
4.456439
 20
63.597551
 11
4.456439
 21
63.161775
 39
0
 62
0
  0
LINE
  8
default
  6
CONTINUOUS
 10
4.456439
 20
63.161775
 11
4.532112
 21
62.732617
 39
0
 62
0
  0
LINE
  8
default
  6
CONTINUOUS
 10
4.532112
 20
62.732617
 11
4.681156
 21
62.323114
 39
0
 62
0
  0
LINE
  8
default
  6
CONTINUOUS
 10
4.681156
 20
62.323114
 11
4.899046
 21
61.945719
 39
0
 62
0
  0
LINE
  8
default
  6
CONTINUOUS
 10
4.899046
 20
61.945719
 11
5.179159
 21
61.611896
 39
0
 62
0
  0
LINE
  8
default
  6
CONTINUOUS
 10
5.179159
 20
61.611896
 11
5.512985
 21
61.331783
 39
0
 62
0
  0
LINE
  8
default
  6
CONTINUOUS
 10
5.512985
 20
61.331783
 11
5.890381
 21
61.113890
 39
0
 62
0
  0
LINE
  8
default
  6
CONTINUOUS
 10
5.890381
 20
61.113890
 11
6.299879
 21
60.964846
 39
0
 62
0
  0
LINE
  8
default
  6
CONTINUOUS
 10
6.299879
 20
60.964846
 11
6.729037
 21
60.889174
 39
0
 62
0
  0
LINE
  8
default
  6
CONTINUOUS
 10
6.729037
 20
60.889174
 11
7.164816
 21
60.889174
 39
0
 62
0
  0
LINE
  8
default
  6
CONTINUOUS
 10
6.549281
 20
50.897279
 11
6.978439
 21
50.972947
 39
0
 62
0
  0
LINE
  8
default
  6
CONTINUOUS
 10
6.978439
 20
50.972947
 11
7.387937
 21
51.121996
 39
0
 62
0
  0
LINE
  8
default
  6
CONTINUOUS
 10
7.387937
 20
51.121996
 11
7.765333
 21
51.339884
 39
0
 62
0
  0
LINE
  8
default
  6
CONTINUOUS
 10
7.765333
 20
51.339884
 11
8.099158
 21
51.619993
 39
0
 62
0
  0
LINE
  8
default
  6
CONTINUOUS
 10
8.099158
 20
51.619993
 11
8.379271
 21
51.953824
 39
0
 62
0
  0
LINE
  8
default
  6
CONTINUOUS
 10
8.379271
 20
51.953824
 11
8.597161
 21
52.331219
 39
0
 62
0
  0
LINE
  8
default
  6
CONTINUOUS
 10
8.597161
 20
52.331219
 11
8.746206
 21
52.740714
 39
0
 62
0
  0
LINE
  8
default
  6
CONTINUOUS
 10
8.746206
 20
52.740714
 11
8.821878
 21
53.169876
 39
0
 62
0
  0
LINE
  8
default
  6
CONTINUOUS
 10
8.821878
 20
53.169876
 11
8.821878
 21
53.605652
 39
0
 62
0
  0
LINE
  8
default
  6
CONTINUOUS
 10
8.821878
 20
53.605652
 11
8.746206
 21
54.034814
 39
0
 62
0
  0
LINE
  8
default
  6
CONTINUOUS
 10
8.746206
 20
54.034814
 11
8.597161
 21
54.444309
 39
0
 62
0
  0
LINE
  8
default
  6
CONTINUOUS
 10
8.597161
 20
54.444309
 11
8.379271
 21
54.821704
 39
0
 62
0
  0
LINE
  8
default
  6
CONTINUOUS
 10
8.379271
 20
54.821704
 11
8.099158
 21
55.155531
 39
0
 62
0
  0
LINE
  8
default
  6
CONTINUOUS
 10
8.099158
 20
55.155531
 11
7.765333
 21
55.435640
 39
0
 62
0
  0
LINE
  8
default
  6
CONTINUOUS
 10
7.765333
 20
55.435640
 11
7.387937
 21
55.653528
 39
0
 62
0
  0
LINE
  8
default
  6
CONTINUOUS
 10
7.387937
 20
55.653528
 11
6.978439
 21
55.802572
 39
0
 62
0
  0
LINE
  8
default
  6
CONTINUOUS
 10
6.978439
 20
55.802572
 11
6.549281
 21
55.878249
 39
0
 62
0
  0
LINE
  8
default
  6
CONTINUOUS
 10
6.549281
 20
55.878249
 11
6.113502
 21
55.878249
 39
0
 62
0
  0
LINE
  8
default
  6
CONTINUOUS
 10
6.113502
 20
55.878249
 11
5.684344
 21
55.802572
 39
0
 62
0
  0
LINE
  8
default
  6
CONTINUOUS
 10
5.684344
 20
55.802572
 11
5.274846
 21
55.653528
 39
0
 62
0
  0
LINE
  8
default
  6
CONTINUOUS
 10
5.274846
 20
55.653528
 11
4.897450
 21
55.435640
 39
0
 62
0
  0
LINE
  8
default
  6
CONTINUOUS
 10
4.897450
 20
55.435640
 11
4.563624
 21
55.155531
 39
0
 62
0
  0
LINE
  8
default
  6
CONTINUOUS
 10
4.563624
 20
55.155531
 11
4.283511
 21
54.821704
 39
0
 62
0
  0
LINE
  8
default
  6
CONTINUOUS
 10
4.283511
 20
54.821704
 11
4.065622
 21
54.444309
 39
0
 62
0
  0
LINE
  8
default
  6
CONTINUOUS
 10
4.065622
 20
54.444309
 11
3.916577
 21
54.034814
 39
0
 62
0
  0
LINE
  8
default
  6
CONTINUOUS
 10
3.916577
 20
54.034814
 11
3.840905
 21
53.605652
 39
0
 62
0
  0
LINE
  8
default
  6
CONTINUOUS
 10
3.840905
 20
53.605652
 11
3.840905
 21
53.169876
 39
0
 62
0
  0
LINE
  8
default
  6
CONTINUOUS
 10
3.840905
 20
53.169876
 11
3.916577
 21
52.740714
 39
0
 62
0
  0
LINE
  8
default
  6
CONTINUOUS
 10
3.916577
 20
52.740714
 11
4.065622
 21
52.331219
 39
0
 62
0
  0
LINE
  8
default
  6
CONTINUOUS
 10
4.065622
 20
52.331219
 11
4.283511
 21
51.953824
 39
0
 62
0
  0
LINE
  8
default
  6
CONTINUOUS
 10
4.283511
 20
51.953824
 11
4.563624
 21
51.619993
 39
0
 62
0
  0
LINE
  8
default
  6
CONTINUOUS
 10
4.563624
 20
51.619993
 11
4.897450
 21
51.339884
 39
0
 62
0
  0
LINE
  8
default
  6
CONTINUOUS
 10
4.897450
 20
51.339884
 11
5.274846
 21
51.121996
 39
0
 62
0
  0
LINE
  8
default
  6
CONTINUOUS
 10
5.274846
 20
51.121996
 11
5.684344
 21
50.972947
 39
0
 62
0
  0
LINE
  8
default
  6
CONTINUOUS
 10
5.684344
 20
50.972947
 11
6.113502
 21
50.897279
 39
0
 62
0
  0
LINE
  8
default
  6
CONTINUOUS
 10
6.113502
 20
50.897279
 11
6.549281
 21
50.897279
 39
0
 62
0
  0
LINE
  8
default
  6
CONTINUOUS
 10
6.889667
 20
44.286725
 11
9.561355
 21
46.092602
 39
0
 62
0
  0
LINE
  8
default
  6
CONTINUOUS
 10
9.561355
 20
46.092602
 11
11.878866
 21
48.334972
 39
0
 62
0
  0
LINE
  8
default
  6
CONTINUOUS
 10
11.878866
 20
48.334972
 11
13.771786
 21
50.945704
 39
0
 62
0
  0
LINE
  8
default
  6
CONTINUOUS
 10
13.771786
 20
50.945704
 11
15.182600
 21
53.845482
 39
0
 62
0
  0
LINE
  8
default
  6
CONTINUOUS
 10
15.182600
 20
53.845482
 11
16.068441
 21
56.946189
 39
0
 62
0
  0
LINE
  8
default
  6
CONTINUOUS
 10
16.068441
 20
56.946189
 11
16.391079
 21
59.743383
 39
0
 62
0
  0
LINE
  8
default
  6
CONTINUOUS
 10
28.375768
 20
65.254440
 11
28.163725
 21
66.457002
 39
0
 62
0
  0
LINE
  8
default
  6
CONTINUOUS
 10
28.163725
 20
66.457002
 11
27.746078
 21
67.604477
 39
0
 62
0
  0
LINE
  8
default
  6
CONTINUOUS
 10
27.746078
 20
67.604477
 11
27.135522
 21
68.661988
 39
0
 62
0
  0
LINE
  8
default
  6
CONTINUOUS
 10
27.135522
 20
68.661988
 11
26.350606
 21
69.597410
 39
0
 62
0
  0
LINE
  8
default
  6
CONTINUOUS
 10
26.350606
 20
69.597410
 11
25.415180
 21
70.382332
 39
0
 62
0
  0
LINE
  8
default
  6
CONTINUOUS
 10
25.415180
 20
70.382332
 11
24.357664
 21
70.992891
 39
0
 62
0
  0
LINE
  8
default
  6
CONTINUOUS
 10
24.357664
 20
70.992891
 11
23.210196
 21
71.410531
 39
0
 62
0
  0
LINE
  8
default
  6
CONTINUOUS
 10
23.210196
 20
71.410531
 11
22.007630
 21
71.622575
 39
0
 62
0
  0
LINE
  8
default
  6
CONTINUOUS
 10
22.007630
 20
71.622575
 11
20.786521
 21
71.622575
 39
0
 62
0
  0
LINE
  8
default
  6
CONTINUOUS
 10
20.786521
 20
71.622575
 11
19.583959
 21
71.410531
 39
0
 62
0
  0
LINE
  8
default
  6
CONTINUOUS
 10
19.583959
 20
71.410531
 11
18.436489
 21
70.992891
 39
0
 62
0
  0
LINE
  8
default
  6
CONTINUOUS
 10
18.436489
 20
70.992891
 11
17.378974
 21
70.382332
 39
0
 62
0
  0
LINE
  8
default
  6
CONTINUOUS
 10
17.378974
 20
70.382332
 11
16.443545
 21
69.597410
 39
0
 62
0
  0
LINE
  8
default
  6
CONTINUOUS
 10
16.443545
 20
69.597410
 11
15.658632
 21
68.661988
 39
0
 62
0
  0
LINE
  8
default
  6
CONTINUOUS
 10
15.658632
 20
68.661988
 11
15.048076
 21
67.604477
 39
0
 62
0
  0
LINE
  8
default
  6
CONTINUOUS
 10
15.048076
 20
67.604477
 11
14.630429
 21
66.457002
 39
0
 62
0
  0
LINE
  8
default
  6
CONTINUOUS
 10
14.630429
 20
66.457002
 11
14.418387
 21
65.254440
 39
0
 62
0
  0
LINE
  8
default
  6
CONTINUOUS
 10
14.418387
 20
65.254440
 11
14.418387
 21
64.033331
 39
0
 62
0
  0
LINE
  8
default
  6
CONTINUOUS
 10
14.418387
 20
64.033331
 11
14.630429
 21
62.830770
 39
0
 62
0
  0
LINE
  8
default
  6
CONTINUOUS
 10
14.630429
 20
62.830770
 11
15.048076
 21
61.683295
 39
0
 62
0
  0
LINE
  8
default
  6
CONTINUOUS
 10
15.048076
 20
61.683295
 11
15.658632
 21
60.625784
 39
0
 62
0
  0
LINE
  8
default
  6
CONTINUOUS
 10
15.658632
 20
60.625784
 11
16.391079
 21
59.743388
 39
0
 62
0
  0
LINE
  8
default
  6
CONTINUOUS
 10
50.898277
 20
15.417819
 11
48.467353
 21
18.906814
 39
0
 62
0
  0
LINE
  8
default
  6
CONTINUOUS
 10
48.467353
 20
18.906814
 11
45.467503
 21
21.920676
 39
0
 62
0
  0
LINE
  8
default
  6
CONTINUOUS
 10
45.467503
 20
21.920676
 11
41.989873
 21
24.367830
 39
0
 62
0
  0
LINE
  8
default
  6
CONTINUOUS
 10
41.989873
 20
24.367830
 11
38.140132
 21
26.173925
 39
0
 62
0
  0
LINE
  8
default
  6
CONTINUOUS
 10
38.140132
 20
26.173925
 11
34.035255
 21
27.284080
 39
0
 62
0
  0
LINE
  8
default
  6
CONTINUOUS
 10
34.035255
 20
27.284080
 11
29.799958
 21
27.664564
 39
0
 62
0
  0
LINE
  8
default
  6
CONTINUOUS
 10
29.799958
 20
27.664564
 11
25.562942
 21
27.303819
 39
0
 62
0
  0
LINE
  8
default
  6
CONTINUOUS
 10
25.562942
 20
27.303819
 11
21.452936
 21
26.212802
 39
0
 62
0
  0
LINE
  8
default
  6
CONTINUOUS
 10
21.452936
 20
26.212802
 11
17.594824
 21
24.424662
 39
0
 62
0
  0
LINE
  8
default
  6
CONTINUOUS
 10
17.594824
 20
24.424662
 11
14.105828
 21
21.993737
 39
0
 62
0
  0
LINE
  8
default
  6
CONTINUOUS
 10
14.105828
 20
21.993737
 11
11.091966
 21
18.993888
 39
0
 62
0
  0
LINE
  8
default
  6
CONTINUOUS
 10
11.091966
 20
18.993888
 11
8.644813
 21
15.516258
 39
0
 62
0
  0
LINE
  8
default
  6
CONTINUOUS
 10
8.644813
 20
15.516258
 11
6.838719
 21
11.666518
 39
0
 62
0
  0
LINE
  8
default
  6
CONTINUOUS
 10
6.838719
 20
11.666518
 11
5.728564
 21
7.561642
 39
0
 62
0
  0
LINE
  8
default
  6
CONTINUOUS
 10
5.728564
 20
7.561642
 11
5.348079
 21
3.326350
 39
0
 62
0
  0
LINE
  8
default
  6
CONTINUOUS
 10
5.348079
 20
3.326350
 11
5.440843
 21
1.143342
 39
0
 62
0
  0
LINE
  8
default
  6
CONTINUOUS
 10
50.898277
 20
15.417825
 11
49.175505
 21
17.020829
 39
0
 62
0
  0
LINE
  8
default
  6
CONTINUOUS
 10
49.175505
 20
17.020829
 11
47.200545
 21
18.300329
 39
0
 62
0
  0
LINE
  8
default
  6
CONTINUOUS
 10
47.200545
 20
18.300329
 11
45.033411
 21
19.217441
 39
0
 62
0
  0
LINE
  8
default
  6
CONTINUOUS
 10
45.033411
 20
19.217441
 11
42.739944
 21
19.744300
 39
0
 62
0
  0
LINE
  8
default
  6
CONTINUOUS
 10
42.739944
 20
19.744300
 11
40.389833
 21
19.864898
 39
0
 62
0
  0
LINE
  8
default
  6
CONTINUOUS
 10
40.389833
 20
19.864898
 11
38.054477
 21
19.575571
 39
0
 62
0
  0
LINE
  8
default
  6
CONTINUOUS
 10
38.054477
 20
19.575571
 11
35.804848
 21
18.885110
 39
0
 62
0
  0
LINE
  8
default
  6
CONTINUOUS
 10
35.804848
 20
18.885110
 11
33.709293
 21
17.814493
 39
0
 62
0
  0
LINE
  8
default
  6
CONTINUOUS
 10
33.709293
 20
17.814493
 11
31.831483
 21
16.396255
 39
0
 62
0
  0
LINE
  8
default
  6
CONTINUOUS
 10
31.831483
 20
16.396255
 11
30.228475
 21
14.673482
 39
0
 62
0
  0
LINE
  8
default
  6
CONTINUOUS
 10
30.228475
 20
14.673482
 11
28.948979
 21
12.698526
 39
0
 62
0
  0
LINE
  8
default
  6
CONTINUOUS
 10
28.948979
 20
12.698526
 11
28.031868
 21
10.531389
 39
0
 62
0
  0
LINE
  8
default
  6
CONTINUOUS
 10
28.031868
 20
10.531389
 11
27.554821
 21
8.565692
 39
0
 62
0
  0
LINE
  8
default
  6
CONTINUOUS
 10
31.890902
 20
22.545342
 11
28.511059
 21
22.625457
 39
0
 62
0
  0
LINE
  8
default
  6
CONTINUOUS
 10
28.511059
 20
22.625457
 11
25.168653
 21
22.117451
 39
0
 62
0
  0
LINE
  8
default
  6
CONTINUOUS
 10
25.168653
 20
22.117451
 11
21.965240
 21
21.036755
 39
0
 62
0
  0
LINE
  8
default
  6
CONTINUOUS
 10
21.965240
 20
21.036755
 11
18.998153
 21
19.416219
 39
0
 62
0
  0
LINE
  8
default
  6
CONTINUOUS
 10
18.998153
 20
19.416219
 11
16.357547
 21
17.305069
 39
0
 62
0
  0
LINE
  8
default
  6
CONTINUOUS
 10
16.357547
 20
17.305069
 11
14.123657
 21
14.767456
 39
0
 62
0
  0
LINE
  8
default
  6
CONTINUOUS
 10
14.123657
 20
14.767456
 11
12.364356
 21
11.880484
 39
0
 62
0
  0
LINE
  8
default
  6
CONTINUOUS
 10
12.364356
 20
11.880484
 11
11.133097
 21
8.731872
 39
0
 62
0
  0
LINE
  8
default
  6
CONTINUOUS
 10
11.133097
 20
8.731872
 11
10.467299
 21
5.417289
 39
0
 62
0
  0
LINE
  8
default
  6
CONTINUOUS
 10
10.467299
 20
5.417289
 11
10.387184
 21
2.037447
 39
0
 62
0
  0
LINE
  8
default
  6
CONTINUOUS
 10
10.387184
 20
2.037447
 11
10.421815
 21
1.579120
 39
0
 62
0
  0
LINE
  8
default
  6
CONTINUOUS
 10
52.462678
 20
10.820938
 11
52.891836
 21
10.896608
 39
0
 62
0
  0
LINE
  8
default
  6
CONTINUOUS
 10
52.891836
 20
10.896608
 11
53.301335
 21
11.045655
 39
0
 62
0
  0
LINE
  8
default
  6
CONTINUOUS
 10
53.301335
 20
11.045655
 11
53.678730
 21
11.263545
 39
0
 62
0
  0
LINE
  8
default
  6
CONTINUOUS
 10
53.678730
 20
11.263545
 11
54.012557
 21
11.543658
 39
0
 62
0
  0
LINE
  8
default
  6
CONTINUOUS
 10
54.012557
 20
11.543658
 11
54.292671
 21
11.877484
 39
0
 62
0
  0
LINE
  8
default
  6
CONTINUOUS
 10
54.292671
 20
11.877484
 11
54.510559
 21
12.254877
 39
0
 62
0
  0
LINE
  8
default
  6
CONTINUOUS
 10
54.510559
 20
12.254877
 11
54.659603
 21
12.664376
 39
0
 62
0
  0
LINE
  8
default
  6
CONTINUOUS
 10
54.659603
 20
12.664376
 11
54.735275
 21
13.093536
 39
0
 62
0
  0
LINE
  8
default
  6
CONTINUOUS
 10
54.735275
 20
13.093536
 11
54.735275
 21
13.529313
 39
0
 62
0
  0
LINE
  8
default
  6
CONTINUOUS
 10
54.735275
 20
13.529313
 11
54.659603
 21
13.958473
 39
0
 62
0
  0
LINE
  8
default
  6
CONTINUOUS
 10
54.659603
 20
13.958473
 11
54.510559
 21
14.367971
 39
0
 62
0
  0
LINE
  8
default
  6
CONTINUOUS
 10
54.510559
 20
14.367971
 11
54.292671
 21
14.745365
 39
0
 62
0
  0
LINE
  8
default
  6
CONTINUOUS
 10
54.292671
 20
14.745365
 11
54.012557
 21
15.079192
 39
0
 62
0
  0
LINE
  8
default
  6
CONTINUOUS
 10
54.012557
 20
15.079192
 11
53.678730
 21
15.359305
 39
0
 62
0
  0
LINE
  8
default
  6
CONTINUOUS
 10
53.678730
 20
15.359305
 11
53.301335
 21
15.577193
 39
0
 62
0
  0
LINE
  8
default
  6
CONTINUOUS
 10
53.301335
 20
15.577193
 11
52.891836
 21
15.726238
 39
0
 62
0
  0
LINE
  8
default
  6
CONTINUOUS
 10
52.891836
 20
15.726238
 11
52.462678
 21
15.801912
 39
0
 62
0
  0
LINE
  8
default
  6
CONTINUOUS
 10
52.462678
 20
15.801912
 11
52.026902
 21
15.801912
 39
0
 62
0
  0
LINE
  8
default
  6
CONTINUOUS
 10
52.026902
 20
15.801912
 11
51.597745
 21
15.726238
 39
0
 62
0
  0
LINE
  8
default
  6
CONTINUOUS
 10
51.597745
 20
15.726238
 11
51.188241
 21
15.577193
 39
0
 62
0
  0
LINE
  8
default
  6
CONTINUOUS
 10
51.188241
 20
15.577193
 11
50.810846
 21
15.359305
 39
0
 62
0
  0
LINE
  8
default
  6
CONTINUOUS
 10
50.810846
 20
15.359305
 11
50.477024
 21
15.079192
 39
0
 62
0
  0
LINE
  8
default
  6
CONTINUOUS
 10
50.477024
 20
15.079192
 11
50.196910
 21
14.745365
 39
0
 62
0
  0
LINE
  8
default
  6
CONTINUOUS
 10
50.196910
 20
14.745365
 11
49.979018
 21
14.367971
 39
0
 62
0
  0
LINE
  8
default
  6
CONTINUOUS
 10
49.979018
 20
14.367971
 11
49.829974
 21
13.958473
 39
0
 62
0
  0
LINE
  8
default
  6
CONTINUOUS
 10
49.829974
 20
13.958473
 11
49.754297
 21
13.529313
 39
0
 62
0
  0
LINE
  8
default
  6
CONTINUOUS
 10
49.754297
 20
13.529313
 11
49.754297
 21
13.093536
 39
0
 62
0
  0
LINE
  8
default
  6
CONTINUOUS
 10
49.754297
 20
13.093536
 11
49.829974
 21
12.664376
 39
0
 62
0
  0
LINE
  8
default
  6
CONTINUOUS
 10
49.829974
 20
12.664376
 11
49.979018
 21
12.254877
 39
0
 62
0
  0
LINE
  8
default
  6
CONTINUOUS
 10
49.979018
 20
12.254877
 11
50.196910
 21
11.877484
 39
0
 62
0
  0
LINE
  8
default
  6
CONTINUOUS
 10
50.196910
 20
11.877484
 11
50.477024
 21
11.543658
 39
0
 62
0
  0
LINE
  8
default
  6
CONTINUOUS
 10
50.477024
 20
11.543658
 11
50.810846
 21
11.263545
 39
0
 62
0
  0
LINE
  8
default
  6
CONTINUOUS
 10
50.810846
 20
11.263545
 11
51.188241
 21
11.045655
 39
0
 62
0
  0
LINE
  8
default
  6
CONTINUOUS
 10
51.188241
 20
11.045655
 11
51.597745
 21
10.896608
 39
0
 62
0
  0
LINE
  8
default
  6
CONTINUOUS
 10
51.597745
 20
10.896608
 11
52.026902
 21
10.820938
 39
0
 62
0
  0
LINE
  8
default
  6
CONTINUOUS
 10
52.026902
 20
10.820938
 11
52.462678
 21
10.820938
 39
0
 62
0
  0
LINE
  8
default
  6
CONTINUOUS
 10
45.108545
 20
23.002883
 11
45.537703
 21
23.078551
 39
0
 62
0
  0
LINE
  8
default
  6
CONTINUOUS
 10
45.537703
 20
23.078551
 11
45.947206
 21
23.227597
 39
0
 62
0
  0
LINE
  8
default
  6
CONTINUOUS
 10
45.947206
 20
23.227597
 11
46.324597
 21
23.445489
 39
0
 62
0
  0
LINE
  8
default
  6
CONTINUOUS
 10
46.324597
 20
23.445489
 11
46.658424
 21
23.725603
 39
0
 62
0
  0
LINE
  8
default
  6
CONTINUOUS
 10
46.658424
 20
23.725603
 11
46.938537
 21
24.059427
 39
0
 62
0
  0
LINE
  8
default
  6
CONTINUOUS
 10
46.938537
 20
24.059427
 11
47.156425
 21
24.436825
 39
0
 62
0
  0
LINE
  8
default
  6
CONTINUOUS
 10
47.156425
 20
24.436825
 11
47.305474
 21
24.846320
 39
0
 62
0
  0
LINE
  8
default
  6
CONTINUOUS
 10
47.305474
 20
24.846320
 11
47.381146
 21
25.275477
 39
0
 62
0
  0
LINE
  8
default
  6
CONTINUOUS
 10
47.381146
 20
25.275477
 11
47.381146
 21
25.711260
 39
0
 62
0
  0
LINE
  8
default
  6
CONTINUOUS
 10
47.381146
 20
25.711260
 11
47.305474
 21
26.140417
 39
0
 62
0
  0
LINE
  8
default
  6
CONTINUOUS
 10
47.305474
 20
26.140417
 11
47.156425
 21
26.549912
 39
0
 62
0
  0
LINE
  8
default
  6
CONTINUOUS
 10
47.156425
 20
26.549912
 11
46.938537
 21
26.927310
 39
0
 62
0
  0
LINE
  8
default
  6
CONTINUOUS
 10
46.938537
 20
26.927310
 11
46.658424
 21
27.261134
 39
0
 62
0
  0
LINE
  8
default
  6
CONTINUOUS
 10
46.658424
 20
27.261134
 11
46.324597
 21
27.541250
 39
0
 62
0
  0
LINE
  8
default
  6
CONTINUOUS
 10
46.324597
 20
27.541250
 11
45.947206
 21
27.759138
 39
0
 62
0
  0
LINE
  8
default
  6
CONTINUOUS
 10
45.947206
 20
27.759138
 11
45.537703
 21
27.908184
 39
0
 62
0
  0
LINE
  8
default
  6
CONTINUOUS
 10
45.537703
 20
27.908184
 11
45.108545
 21
27.983857
 39
0
 62
0
  0
LINE
  8
default
  6
CONTINUOUS
 10
45.108545
 20
27.983857
 11
44.672769
 21
27.983857
 39
0
 62
0
  0
LINE
  8
default
  6
CONTINUOUS
 10
44.672769
 20
27.983857
 11
44.243612
 21
27.908184
 39
0
 62
0
  0
LINE
  8
default
  6
CONTINUOUS
 10
44.243612
 20
27.908184
 11
43.834108
 21
27.759138
 39
0
 62
0
  0
LINE
  8
default
  6
CONTINUOUS
 10
43.834108
 20
27.759138
 11
43.456713
 21
27.541250
 39
0
 62
0
  0
LINE
  8
default
  6
CONTINUOUS
 10
43.456713
 20
27.541250
 11
43.122890
 21
27.261134
 39
0
 62
0
  0
LINE
  8
default
  6
CONTINUOUS
 10
43.122890
 20
27.261134
 11
42.842777
 21
26.927310
 39
0
 62
0
  0
LINE
  8
default
  6
CONTINUOUS
 10
42.842777
 20
26.927310
 11
42.624889
 21
26.549912
 39
0
 62
0
  0
LINE
  8
default
  6
CONTINUOUS
 10
42.624889
 20
26.549912
 11
42.475840
 21
26.140417
 39
0
 62
0
  0
LINE
  8
default
  6
CONTINUOUS
 10
42.475840
 20
26.140417
 11
42.400168
 21
25.711260
 39
0
 62
0
  0
LINE
  8
default
  6
CONTINUOUS
 10
42.400168
 20
25.711260
 11
42.400168
 21
25.275477
 39
0
 62
0
  0
LINE
  8
default
  6
CONTINUOUS
 10
42.400168
 20
25.275477
 11
42.475840
 21
24.846320
 39
0
 62
0
  0
LINE
  8
default
  6
CONTINUOUS
 10
42.475840
 20
24.846320
 11
42.624889
 21
24.436825
 39
0
 62
0
  0
LINE
  8
default
  6
CONTINUOUS
 10
42.624889
 20
24.436825
 11
42.842777
 21
24.059427
 39
0
 62
0
  0
LINE
  8
default
  6
CONTINUOUS
 10
42.842777
 20
24.059427
 11
43.122890
 21
23.725603
 39
0
 62
0
  0
LINE
  8
default
  6
CONTINUOUS
 10
43.122890
 20
23.725603
 11
43.456713
 21
23.445489
 39
0
 62
0
  0
LINE
  8
default
  6
CONTINUOUS
 10
43.456713
 20
23.445489
 11
43.834108
 21
23.227597
 39
0
 62
0
  0
LINE
  8
default
  6
CONTINUOUS
 10
43.834108
 20
23.227597
 11
44.243612
 21
23.078551
 39
0
 62
0
  0
LINE
  8
default
  6
CONTINUOUS
 10
44.243612
 20
23.078551
 11
44.672769
 21
23.002883
 39
0
 62
0
  0
LINE
  8
default
  6
CONTINUOUS
 10
44.672769
 20
23.002883
 11
45.108545
 21
23.002883
 39
0
 62
0
  0
LINE
  8
default
  6
CONTINUOUS
 10
33.900303
 20
27.384096
 11
34.329463
 21
27.459768
 39
0
 62
0
  0
LINE
  8
default
  6
CONTINUOUS
 10
34.329463
 20
27.459768
 11
34.738960
 21
27.608812
 39
0
 62
0
  0
LINE
  8
default
  6
CONTINUOUS
 10
34.738960
 20
27.608812
 11
35.116355
 21
27.826702
 39
0
 62
0
  0
LINE
  8
default
  6
CONTINUOUS
 10
35.116355
 20
27.826702
 11
35.450184
 21
28.106814
 39
0
 62
0
  0
LINE
  8
default
  6
CONTINUOUS
 10
35.450184
 20
28.106814
 11
35.730293
 21
28.440641
 39
0
 62
0
  0
LINE
  8
default
  6
CONTINUOUS
 10
35.730293
 20
28.440641
 11
35.948186
 21
28.818034
 39
0
 62
0
  0
LINE
  8
default
  6
CONTINUOUS
 10
35.948186
 20
28.818034
 11
36.097229
 21
29.227535
 39
0
 62
0
  0
LINE
  8
default
  6
CONTINUOUS
 10
36.097229
 20
29.227535
 11
36.172900
 21
29.656693
 39
0
 62
0
  0
LINE
  8
default
  6
CONTINUOUS
 10
36.172900
 20
29.656693
 11
36.172900
 21
30.092469
 39
0
 62
0
  0
LINE
  8
default
  6
CONTINUOUS
 10
36.172900
 20
30.092469
 11
36.097229
 21
30.521626
 39
0
 62
0
  0
LINE
  8
default
  6
CONTINUOUS
 10
36.097229
 20
30.521626
 11
35.948186
 21
30.931130
 39
0
 62
0
  0
LINE
  8
default
  6
CONTINUOUS
 10
35.948186
 20
30.931130
 11
35.730293
 21
31.308523
 39
0
 62
0
  0
LINE
  8
default
  6
CONTINUOUS
 10
35.730293
 20
31.308523
 11
35.450184
 21
31.642350
 39
0
 62
0
  0
LINE
  8
default
  6
CONTINUOUS
 10
35.450184
 20
31.642350
 11
35.116355
 21
31.922461
 39
0
 62
0
  0
LINE
  8
default
  6
CONTINUOUS
 10
35.116355
 20
31.922461
 11
34.738960
 21
32.140349
 39
0
 62
0
  0
LINE
  8
default
  6
CONTINUOUS
 10
34.738960
 20
32.140349
 11
34.329463
 21
32.289397
 39
0
 62
0
  0
LINE
  8
default
  6
CONTINUOUS
 10
34.329463
 20
32.289397
 11
33.900303
 21
32.365070
 39
0
 62
0
  0
LINE
  8
default
  6
CONTINUOUS
 10
33.900303
 20
32.365070
 11
33.464527
 21
32.365070
 39
0
 62
0
  0
LINE
  8
default
  6
CONTINUOUS
 10
33.464527
 20
32.365070
 11
33.035365
 21
32.289397
 39
0
 62
0
  0
LINE
  8
default
  6
CONTINUOUS
 10
33.035365
 20
32.289397
 11
32.625868
 21
32.140349
 39
0
 62
0
  0
LINE
  8
default
  6
CONTINUOUS
 10
32.625868
 20
32.140349
 11
32.248473
 21
31.922461
 39
0
 62
0
  0
LINE
  8
default
  6
CONTINUOUS
 10
32.248473
 20
31.922461
 11
31.914648
 21
31.642350
 39
0
 62
0
  0
LINE
  8
default
  6
CONTINUOUS
 10
31.914648
 20
31.642350
 11
31.634535
 21
31.308523
 39
0
 62
0
  0
LINE
  8
default
  6
CONTINUOUS
 10
31.634535
 20
31.308523
 11
31.416645
 21
30.931130
 39
0
 62
0
  0
LINE
  8
default
  6
CONTINUOUS
 10
31.416645
 20
30.931130
 11
31.267596
 21
30.521626
 39
0
 62
0
  0
LINE
  8
default
  6
CONTINUOUS
 10
31.267596
 20
30.521626
 11
31.191928
 21
30.092469
 39
0
 62
0
  0
LINE
  8
default
  6
CONTINUOUS
 10
31.191928
 20
30.092469
 11
31.191928
 21
29.656693
 39
0
 62
0
  0
LINE
  8
default
  6
CONTINUOUS
 10
31.191928
 20
29.656693
 11
31.267596
 21
29.227535
 39
0
 62
0
  0
LINE
  8
default
  6
CONTINUOUS
 10
31.267596
 20
29.227535
 11
31.416645
 21
28.818034
 39
0
 62
0
  0
LINE
  8
default
  6
CONTINUOUS
 10
31.416645
 20
28.818034
 11
31.634535
 21
28.440641
 39
0
 62
0
  0
LINE
  8
default
  6
CONTINUOUS
 10
31.634535
 20
28.440641
 11
31.914648
 21
28.106814
 39
0
 62
0
  0
LINE
  8
default
  6
CONTINUOUS
 10
31.914648
 20
28.106814
 11
32.248473
 21
27.826702
 39
0
 62
0
  0
LINE
  8
default
  6
CONTINUOUS
 10
32.248473
 20
27.826702
 11
32.625868
 21
27.608812
 39
0
 62
0
  0
LINE
  8
default
  6
CONTINUOUS
 10
32.625868
 20
27.608812
 11
33.035365
 21
27.459768
 39
0
 62
0
  0
LINE
  8
default
  6
CONTINUOUS
 10
33.035365
 20
27.459768
 11
33.464527
 21
27.384096
 39
0
 62
0
  0
LINE
  8
default
  6
CONTINUOUS
 10
33.464527
 20
27.384096
 11
33.900303
 21
27.384096
 39
0
 62
0
  0
LINE
  8
default
  6
CONTINUOUS
 10
21.903384
 20
26.438761
 11
22.332537
 21
26.514431
 39
0
 62
0
  0
LINE
  8
default
  6
CONTINUOUS
 10
22.332537
 20
26.514431
 11
22.742038
 21
26.663478
 39
0
 62
0
  0
LINE
  8
default
  6
CONTINUOUS
 10
22.742038
 20
26.663478
 11
23.119434
 21
26.881368
 39
0
 62
0
  0
LINE
  8
default
  6
CONTINUOUS
 10
23.119434
 20
26.881368
 11
23.453260
 21
27.161481
 39
0
 62
0
  0
LINE
  8
default
  6
CONTINUOUS
 10
23.453260
 20
27.161481
 11
23.733374
 21
27.495308
 39
0
 62
0
  0
LINE
  8
default
  6
CONTINUOUS
 10
23.733374
 20
27.495308
 11
23.951262
 21
27.872701
 39
0
 62
0
  0
LINE
  8
default
  6
CONTINUOUS
 10
23.951262
 20
27.872701
 11
24.100306
 21
28.282200
 39
0
 62
0
  0
LINE
  8
default
  6
CONTINUOUS
 10
24.100306
 20
28.282200
 11
24.175981
 21
28.711356
 39
0
 62
0
  0
LINE
  8
default
  6
CONTINUOUS
 10
24.175981
 20
28.711356
 11
24.175981
 21
29.147136
 39
0
 62
0
  0
LINE
  8
default
  6
CONTINUOUS
 10
24.175981
 20
29.147136
 11
24.100306
 21
29.576296
 39
0
 62
0
  0
LINE
  8
default
  6
CONTINUOUS
 10
24.100306
 20
29.576296
 11
23.951262
 21
29.985793
 39
0
 62
0
  0
LINE
  8
default
  6
CONTINUOUS
 10
23.951262
 20
29.985793
 11
23.733374
 21
30.363188
 39
0
 62
0
  0
LINE
  8
default
  6
CONTINUOUS
 10
23.733374
 20
30.363188
 11
23.453260
 21
30.697015
 39
0
 62
0
  0
LINE
  8
default
  6
CONTINUOUS
 10
23.453260
 20
30.697015
 11
23.119434
 21
30.977124
 39
0
 62
0
  0
LINE
  8
default
  6
CONTINUOUS
 10
23.119434
 20
30.977124
 11
22.742038
 21
31.195019
 39
0
 62
0
  0
LINE
  8
default
  6
CONTINUOUS
 10
22.742038
 20
31.195019
 11
22.332537
 21
31.344063
 39
0
 62
0
  0
LINE
  8
default
  6
CONTINUOUS
 10
22.332537
 20
31.344063
 11
21.903384
 21
31.419735
 39
0
 62
0
  0
LINE
  8
default
  6
CONTINUOUS
 10
21.903384
 20
31.419735
 11
21.467603
 21
31.419735
 39
0
 62
0
  0
LINE
  8
default
  6
CONTINUOUS
 10
21.467603
 20
31.419735
 11
21.038446
 21
31.344063
 39
0
 62
0
  0
LINE
  8
default
  6
CONTINUOUS
 10
21.038446
 20
31.344063
 11
20.628947
 21
31.195019
 39
0
 62
0
  0
LINE
  8
default
  6
CONTINUOUS
 10
20.628947
 20
31.195019
 11
20.251549
 21
30.977124
 39
0
 62
0
  0
LINE
  8
default
  6
CONTINUOUS
 10
20.251549
 20
30.977124
 11
19.917727
 21
30.697015
 39
0
 62
0
  0
LINE
  8
default
  6
CONTINUOUS
 10
19.917727
 20
30.697015
 11
19.637613
 21
30.363188
 39
0
 62
0
  0
LINE
  8
default
  6
CONTINUOUS
 10
19.637613
 20
30.363188
 11
19.419723
 21
29.985793
 39
0
 62
0
  0
LINE
  8
default
  6
CONTINUOUS
 10
19.419723
 20
29.985793
 11
19.270679
 21
29.576296
 39
0
 62
0
  0
LINE
  8
default
  6
CONTINUOUS
 10
19.270679
 20
29.576296
 11
19.195007
 21
29.147136
 39
0
 62
0
  0
LINE
  8
default
  6
CONTINUOUS
 10
19.195007
 20
29.147136
 11
19.195007
 21
28.711356
 39
0
 62
0
  0
LINE
  8
default
  6
CONTINUOUS
 10
19.195007
 20
28.711356
 11
19.270679
 21
28.282200
 39
0
 62
0
  0
LINE
  8
default
  6
CONTINUOUS
 10
19.270679
 20
28.282200
 11
19.419723
 21
27.872701
 39
0
 62
0
  0
LINE
  8
default
  6
CONTINUOUS
 10
19.419723
 20
27.872701
 11
19.637613
 21
27.495308
 39
0
 62
0
  0
LINE
  8
default
  6
CONTINUOUS
 10
19.637613
 20
27.495308
 11
19.917727
 21
27.161481
 39
0
 62
0
  0
LINE
  8
default
  6
CONTINUOUS
 10
19.917727
 20
27.161481
 11
20.251549
 21
26.881368
 39
0
 62
0
  0
LINE
  8
default
  6
CONTINUOUS
 10
20.251549
 20
26.881368
 11
20.628947
 21
26.663478
 39
0
 62
0
  0
LINE
  8
default
  6
CONTINUOUS
 10
20.628947
 20
26.663478
 11
21.038446
 21
26.514431
 39
0
 62
0
  0
LINE
  8
default
  6
CONTINUOUS
 10
21.038446
 20
26.514431
 11
21.467603
 21
26.438761
 39
0
 62
0
  0
LINE
  8
default
  6
CONTINUOUS
 10
21.467603
 20
26.438761
 11
21.903384
 21
26.438761
 39
0
 62
0
  0
LINE
  8
default
  6
CONTINUOUS
 10
11.519657
 20
20.356154
 11
11.948816
 21
20.431824
 39
0
 62
0
  0
LINE
  8
default
  6
CONTINUOUS
 10
11.948816
 20
20.431824
 11
12.358312
 21
20.580870
 39
0
 62
0
  0
LINE
  8
default
  6
CONTINUOUS
 10
12.358312
 20
20.580870
 11
12.735708
 21
20.798758
 39
0
 62
0
  0
LINE
  8
default
  6
CONTINUOUS
 10
12.735708
 20
20.798758
 11
13.069535
 21
21.078874
 39
0
 62
0
  0
LINE
  8
default
  6
CONTINUOUS
 10
13.069535
 20
21.078874
 11
13.349648
 21
21.412701
 39
0
 62
0
  0
LINE
  8
default
  6
CONTINUOUS
 10
13.349648
 20
21.412701
 11
13.567536
 21
21.790094
 39
0
 62
0
  0
LINE
  8
default
  6
CONTINUOUS
 10
13.567536
 20
21.790094
 11
13.716583
 21
22.199593
 39
0
 62
0
  0
LINE
  8
default
  6
CONTINUOUS
 10
13.716583
 20
22.199593
 11
13.792255
 21
22.628751
 39
0
 62
0
  0
LINE
  8
default
  6
CONTINUOUS
 10
13.792255
 20
22.628751
 11
13.792255
 21
23.064529
 39
0
 62
0
  0
LINE
  8
default
  6
CONTINUOUS
 10
13.792255
 20
23.064529
 11
13.716583
 21
23.493688
 39
0
 62
0
  0
LINE
  8
default
  6
CONTINUOUS
 10
13.716583
 20
23.493688
 11
13.567536
 21
23.903185
 39
0
 62
0
  0
LINE
  8
default
  6
CONTINUOUS
 10
13.567536
 20
23.903185
 11
13.349648
 21
24.280583
 39
0
 62
0
  0
LINE
  8
default
  6
CONTINUOUS
 10
13.349648
 20
24.280583
 11
13.069535
 21
24.614405
 39
0
 62
0
  0
LINE
  8
default
  6
CONTINUOUS
 10
13.069535
 20
24.614405
 11
12.735708
 21
24.894521
 39
0
 62
0
  0
LINE
  8
default
  6
CONTINUOUS
 10
12.735708
 20
24.894521
 11
12.358312
 21
25.112409
 39
0
 62
0
  0
LINE
  8
default
  6
CONTINUOUS
 10
12.358312
 20
25.112409
 11
11.948816
 21
25.261455
 39
0
 62
0
  0
LINE
  8
default
  6
CONTINUOUS
 10
11.948816
 20
25.261455
 11
11.519657
 21
25.337128
 39
0
 62
0
  0
LINE
  8
default
  6
CONTINUOUS
 10
11.519657
 20
25.337128
 11
11.083879
 21
25.337128
 39
0
 62
0
  0
LINE
  8
default
  6
CONTINUOUS
 10
11.083879
 20
25.337128
 11
10.654720
 21
25.261455
 39
0
 62
0
  0
LINE
  8
default
  6
CONTINUOUS
 10
10.654720
 20
25.261455
 11
10.245220
 21
25.112409
 39
0
 62
0
  0
LINE
  8
default
  6
CONTINUOUS
 10
10.245220
 20
25.112409
 11
9.867827
 21
24.894521
 39
0
 62
0
  0
LINE
  8
default
  6
CONTINUOUS
 10
9.867827
 20
24.894521
 11
9.534002
 21
24.614405
 39
0
 62
0
  0
LINE
  8
default
  6
CONTINUOUS
 10
9.534002
 20
24.614405
 11
9.253888
 21
24.280583
 39
0
 62
0
  0
LINE
  8
default
  6
CONTINUOUS
 10
9.253888
 20
24.280583
 11
9.035999
 21
23.903185
 39
0
 62
0
  0
LINE
  8
default
  6
CONTINUOUS
 10
9.035999
 20
23.903185
 11
8.886954
 21
23.493688
 39
0
 62
0
  0
LINE
  8
default
  6
CONTINUOUS
 10
8.886954
 20
23.493688
 11
8.811282
 21
23.064529
 39
0
 62
0
  0
LINE
  8
default
  6
CONTINUOUS
 10
8.811282
 20
23.064529
 11
8.811282
 21
22.628751
 39
0
 62
0
  0
LINE
  8
default
  6
CONTINUOUS
 10
8.811282
 20
22.628751
 11
8.886954
 21
22.199593
 39
0
 62
0
  0
LINE
  8
default
  6
CONTINUOUS
 10
8.886954
 20
22.199593
 11
9.035999
 21
21.790094
 39
0
 62
0
  0
LINE
  8
default
  6
CONTINUOUS
 10
9.035999
 20
21.790094
 11
9.253888
 21
21.412701
 39
0
 62
0
  0
LINE
  8
default
  6
CONTINUOUS
 10
9.253888
 20
21.412701
 11
9.534002
 21
21.078874
 39
0
 62
0
  0
LINE
  8
default
  6
CONTINUOUS
 10
9.534002
 20
21.078874
 11
9.867827
 21
20.798758
 39
0
 62
0
  0
LINE
  8
default
  6
CONTINUOUS
 10
9.867827
 20
20.798758
 11
10.245220
 21
20.580870
 39
0
 62
0
  0
LINE
  8
default
  6
CONTINUOUS
 10
10.245220
 20
20.580870
 11
10.654720
 21
20.431824
 39
0
 62
0
  0
LINE
  8
default
  6
CONTINUOUS
 10
10.654720
 20
20.431824
 11
11.083879
 21
20.356154
 39
0
 62
0
  0
LINE
  8
default
  6
CONTINUOUS
 10
11.083879
 20
20.356154
 11
11.519657
 21
20.356154
 39
0
 62
0
  0
LINE
  8
default
  6
CONTINUOUS
 10
4.828044
 20
10.354059
 11
5.257202
 21
10.429731
 39
0
 62
0
  0
LINE
  8
default
  6
CONTINUOUS
 10
5.257202
 20
10.429731
 11
5.666701
 21
10.578777
 39
0
 62
0
  0
LINE
  8
default
  6
CONTINUOUS
 10
5.666701
 20
10.578777
 11
6.044096
 21
10.796666
 39
0
 62
0
  0
LINE
  8
default
  6
CONTINUOUS
 10
6.044096
 20
10.796666
 11
6.377922
 21
11.076779
 39
0
 62
0
  0
LINE
  8
default
  6
CONTINUOUS
 10
6.377922
 20
11.076779
 11
6.658035
 21
11.410605
 39
0
 62
0
  0
LINE
  8
default
  6
CONTINUOUS
 10
6.658035
 20
11.410605
 11
6.875925
 21
11.787998
 39
0
 62
0
  0
LINE
  8
default
  6
CONTINUOUS
 10
6.875925
 20
11.787998
 11
7.024970
 21
12.197498
 39
0
 62
0
  0
LINE
  8
default
  6
CONTINUOUS
 10
7.024970
 20
12.197498
 11
7.100642
 21
12.626655
 39
0
 62
0
  0
LINE
  8
default
  6
CONTINUOUS
 10
7.100642
 20
12.626655
 11
7.100642
 21
13.062435
 39
0
 62
0
  0
LINE
  8
default
  6
CONTINUOUS
 10
7.100642
 20
13.062435
 11
7.024970
 21
13.491594
 39
0
 62
0
  0
LINE
  8
default
  6
CONTINUOUS
 10
7.024970
 20
13.491594
 11
6.875925
 21
13.901090
 39
0
 62
0
  0
LINE
  8
default
  6
CONTINUOUS
 10
6.875925
 20
13.901090
 11
6.658035
 21
14.278486
 39
0
 62
0
  0
LINE
  8
default
  6
CONTINUOUS
 10
6.658035
 20
14.278486
 11
6.377922
 21
14.612313
 39
0
 62
0
  0
LINE
  8
default
  6
CONTINUOUS
 10
6.377922
 20
14.612313
 11
6.044096
 21
14.892424
 39
0
 62
0
  0
LINE
  8
default
  6
CONTINUOUS
 10
6.044096
 20
14.892424
 11
5.666701
 21
15.110314
 39
0
 62
0
  0
LINE
  8
default
  6
CONTINUOUS
 10
5.666701
 20
15.110314
 11
5.257202
 21
15.259361
 39
0
 62
0
  0
LINE
  8
default
  6
CONTINUOUS
 10
5.257202
 20
15.259361
 11
4.828044
 21
15.335033
 39
0
 62
0
  0
LINE
  8
default
  6
CONTINUOUS
 10
4.828044
 20
15.335033
 11
4.392266
 21
15.335033
 39
0
 62
0
  0
LINE
  8
default
  6
CONTINUOUS
 10
4.392266
 20
15.335033
 11
3.963108
 21
15.259361
 39
0
 62
0
  0
LINE
  8
default
  6
CONTINUOUS
 10
3.963108
 20
15.259361
 11
3.553610
 21
15.110314
 39
0
 62
0
  0
LINE
  8
default
  6
CONTINUOUS
 10
3.553610
 20
15.110314
 11
3.176214
 21
14.892424
 39
0
 62
0
  0
LINE
  8
default
  6
CONTINUOUS
 10
3.176214
 20
14.892424
 11
2.842388
 21
14.612313
 39
0
 62
0
  0
LINE
  8
default
  6
CONTINUOUS
 10
2.842388
 20
14.612313
 11
2.562275
 21
14.278486
 39
0
 62
0
  0
LINE
  8
default
  6
CONTINUOUS
 10
2.562275
 20
14.278486
 11
2.344385
 21
13.901090
 39
0
 62
0
  0
LINE
  8
default
  6
CONTINUOUS
 10
2.344385
 20
13.901090
 11
2.195340
 21
13.491594
 39
0
 62
0
  0
LINE
  8
default
  6
CONTINUOUS
 10
2.195340
 20
13.491594
 11
2.119668
 21
13.062435
 39
0
 62
0
  0
LINE
  8
default
  6
CONTINUOUS
 10
2.119668
 20
13.062435
 11
2.119668
 21
12.626655
 39
0
 62
0
  0
LINE
  8
default
  6
CONTINUOUS
 10
2.119668
 20
12.626655
 11
2.195340
 21
12.197498
 39
0
 62
0
  0
LINE
  8
default
  6
CONTINUOUS
 10
2.195340
 20
12.197498
 11
2.344385
 21
11.787998
 39
0
 62
0
  0
LINE
  8
default
  6
CONTINUOUS
 10
2.344385
 20
11.787998
 11
2.562275
 21
11.410605
 39
0
 62
0
  0
LINE
  8
default
  6
CONTINUOUS
 10
2.562275
 20
11.410605
 11
2.842388
 21
11.076779
 39
0
 62
0
  0
LINE
  8
default
  6
CONTINUOUS
 10
2.842388
 20
11.076779
 11
3.176214
 21
10.796666
 39
0
 62
0
  0
LINE
  8
default
  6
CONTINUOUS
 10
3.176214
 20
10.796666
 11
3.553610
 21
10.578777
 39
0
 62
0
  0
LINE
  8
default
  6
CONTINUOUS
 10
3.553610
 20
10.578777
 11
3.963108
 21
10.429731
 39
0
 62
0
  0
LINE
  8
default
  6
CONTINUOUS
 10
3.963108
 20
10.429731
 11
4.392266
 21
10.354059
 39
0
 62
0
  0
LINE
  8
default
  6
CONTINUOUS
 10
4.392266
 20
10.354059
 11
4.828044
 21
10.354059
 39
0
 62
0
  0
LINE
  8
default
  6
CONTINUOUS
 10
31.615751
 20
5.942900
 11
31.186594
 21
5.867229
 39
0
 62
0
  0
LINE
  8
default
  6
CONTINUOUS
 10
31.186594
 20
5.867229
 11
30.777094
 21
5.718183
 39
0
 62
0
  0
LINE
  8
default
  6
CONTINUOUS
 10
30.777094
 20
5.718183
 11
30.399697
 21
5.500294
 39
0
 62
0
  0
LINE
  8
default
  6
CONTINUOUS
 10
30.399697
 20
5.500294
 11
30.065875
 21
5.220180
 39
0
 62
0
  0
LINE
  8
default
  6
CONTINUOUS
 10
30.065875
 20
5.220180
 11
29.785761
 21
4.886355
 39
0
 62
0
  0
LINE
  8
default
  6
CONTINUOUS
 10
29.785761
 20
4.886355
 11
29.567871
 21
4.508959
 39
0
 62
0
  0
LINE
  8
default
  6
CONTINUOUS
 10
29.567871
 20
4.508959
 11
29.418827
 21
4.099461
 39
0
 62
0
  0
LINE
  8
default
  6
CONTINUOUS
 10
29.418827
 20
4.099461
 11
29.343154
 21
3.670303
 39
0
 62
0
  0
LINE
  8
default
  6
CONTINUOUS
 10
29.343154
 20
3.670303
 11
29.343154
 21
3.234524
 39
0
 62
0
  0
LINE
  8
default
  6
CONTINUOUS
 10
29.343154
 20
3.234524
 11
29.418827
 21
2.805366
 39
0
 62
0
  0
LINE
  8
default
  6
CONTINUOUS
 10
29.418827
 20
2.805366
 11
29.567871
 21
2.395868
 39
0
 62
0
  0
LINE
  8
default
  6
CONTINUOUS
 10
29.567871
 20
2.395868
 11
29.785761
 21
2.018472
 39
0
 62
0
  0
LINE
  8
default
  6
CONTINUOUS
 10
29.785761
 20
2.018472
 11
30.065875
 21
1.684647
 39
0
 62
0
  0
LINE
  8
default
  6
CONTINUOUS
 10
30.065875
 20
1.684647
 11
30.399697
 21
1.404533
 39
0
 62
0
  0
LINE
  8
default
  6
CONTINUOUS
 10
30.399697
 20
1.404533
 11
30.777094
 21
1.186644
 39
0
 62
0
  0
LINE
  8
default
  6
CONTINUOUS
 10
30.777094
 20
1.186644
 11
31.186594
 21
1.037599
 39
0
 62
0
  0
LINE
  8
default
  6
CONTINUOUS
 10
31.186594
 20
1.037599
 11
31.615751
 21
0.961927
 39
0
 62
0
  0
LINE
  8
default
  6
CONTINUOUS
 10
31.615751
 20
0.961927
 11
32.051531
 21
0.961927
 39
0
 62
0
  0
LINE
  8
default
  6
CONTINUOUS
 10
32.051531
 20
0.961927
 11
32.480689
 21
1.037599
 39
0
 62
0
  0
LINE
  8
default
  6
CONTINUOUS
 10
32.480689
 20
1.037599
 11
32.890186
 21
1.186644
 39
0
 62
0
  0
LINE
  8
default
  6
CONTINUOUS
 10
32.890186
 20
1.186644
 11
33.267581
 21
1.404533
 39
0
 62
0
  0
LINE
  8
default
  6
CONTINUOUS
 10
33.267581
 20
1.404533
 11
33.601406
 21
1.684647
 39
0
 62
0
  0
LINE
  8
default
  6
CONTINUOUS
 10
33.601406
 20
1.684647
 11
33.881519
 21
2.018472
 39
0
 62
0
  0
LINE
  8
default
  6
CONTINUOUS
 10
33.881519
 20
2.018472
 11
34.099410
 21
2.395868
 39
0
 62
0
  0
LINE
  8
default
  6
CONTINUOUS
 10
34.099410
 20
2.395868
 11
34.248454
 21
2.805366
 39
0
 62
0
  0
LINE
  8
default
  6
CONTINUOUS
 10
34.248454
 20
2.805366
 11
34.324126
 21
3.234524
 39
0
 62
0
  0
LINE
  8
default
  6
CONTINUOUS
 10
34.324126
 20
3.234524
 11
34.324126
 21
3.670303
 39
0
 62
0
  0
LINE
  8
default
  6
CONTINUOUS
 10
34.324126
 20
3.670303
 11
34.248454
 21
4.099461
 39
0
 62
0
  0
LINE
  8
default
  6
CONTINUOUS
 10
34.248454
 20
4.099461
 11
34.099410
 21
4.508959
 39
0
 62
0
  0
LINE
  8
default
  6
CONTINUOUS
 10
34.099410
 20
4.508959
 11
33.881519
 21
4.886355
 39
0
 62
0
  0
LINE
  8
default
  6
CONTINUOUS
 10
33.881519
 20
4.886355
 11
33.601406
 21
5.220180
 39
0
 62
0
  0
LINE
  8
default
  6
CONTINUOUS
 10
33.601406
 20
5.220180
 11
33.267581
 21
5.500294
 39
0
 62
0
  0
LINE
  8
default
  6
CONTINUOUS
 10
33.267581
 20
5.500294
 11
32.890186
 21
5.718183
 39
0
 62
0
  0
LINE
  8
default
  6
CONTINUOUS
 10
32.890186
 20
5.718183
 11
32.480689
 21
5.867229
 39
0
 62
0
  0
LINE
  8
default
  6
CONTINUOUS
 10
32.480689
 20
5.867229
 11
32.051531
 21
5.942900
 39
0
 62
0
  0
LINE
  8
default
  6
CONTINUOUS
 10
32.051531
 20
5.942900
 11
31.615751
 21
5.942900
 39
0
 62
0
  0
LINE
  8
default
  6
CONTINUOUS
 10
39.699061
 20
19.822271
 11
39.269904
 21
19.746599
 39
0
 62
0
  0
LINE
  8
default
  6
CONTINUOUS
 10
39.269904
 20
19.746599
 11
38.860409
 21
19.597553
 39
0
 62
0
  0
LINE
  8
default
  6
CONTINUOUS
 10
38.860409
 20
19.597553
 11
38.483013
 21
19.379665
 39
0
 62
0
  0
LINE
  8
default
  6
CONTINUOUS
 10
38.483013
 20
19.379665
 11
38.149187
 21
19.099547
 39
0
 62
0
  0
LINE
  8
default
  6
CONTINUOUS
 10
38.149187
 20
19.099547
 11
37.869073
 21
18.765725
 39
0
 62
0
  0
LINE
  8
default
  6
CONTINUOUS
 10
37.869073
 20
18.765725
 11
37.651185
 21
18.388329
 39
0
 62
0
  0
LINE
  8
default
  6
CONTINUOUS
 10
37.651185
 20
18.388329
 11
37.502141
 21
17.978832
 39
0
 62
0
  0
LINE
  8
default
  6
CONTINUOUS
 10
37.502141
 20
17.978832
 11
37.426469
 21
17.549670
 39
0
 62
0
  0
LINE
  8
default
  6
CONTINUOUS
 10
37.426469
 20
17.549670
 11
37.426469
 21
17.113895
 39
0
 62
0
  0
LINE
  8
default
  6
CONTINUOUS
 10
37.426469
 20
17.113895
 11
37.502141
 21
16.684736
 39
0
 62
0
  0
LINE
  8
default
  6
CONTINUOUS
 10
37.502141
 20
16.684736
 11
37.651185
 21
16.275240
 39
0
 62
0
  0
LINE
  8
default
  6
CONTINUOUS
 10
37.651185
 20
16.275240
 11
37.869073
 21
15.897843
 39
0
 62
0
  0
LINE
  8
default
  6
CONTINUOUS
 10
37.869073
 20
15.897843
 11
38.149187
 21
15.564017
 39
0
 62
0
  0
LINE
  8
default
  6
CONTINUOUS
 10
38.149187
 20
15.564017
 11
38.483013
 21
15.283904
 39
0
 62
0
  0
LINE
  8
default
  6
CONTINUOUS
 10
38.483013
 20
15.283904
 11
38.860409
 21
15.066015
 39
0
 62
0
  0
LINE
  8
default
  6
CONTINUOUS
 10
38.860409
 20
15.066015
 11
39.269904
 21
14.916970
 39
0
 62
0
  0
LINE
  8
default
  6
CONTINUOUS
 10
39.269904
 20
14.916970
 11
39.699061
 21
14.841298
 39
0
 62
0
  0
LINE
  8
default
  6
CONTINUOUS
 10
39.699061
 20
14.841298
 11
40.134841
 21
14.841298
 39
0
 62
0
  0
LINE
  8
default
  6
CONTINUOUS
 10
40.134841
 20
14.841298
 11
40.563999
 21
14.916970
 39
0
 62
0
  0
LINE
  8
default
  6
CONTINUOUS
 10
40.563999
 20
14.916970
 11
40.973498
 21
15.066015
 39
0
 62
0
  0
LINE
  8
default
  6
CONTINUOUS
 10
40.973498
 20
15.066015
 11
41.350894
 21
15.283904
 39
0
 62
0
  0
LINE
  8
default
  6
CONTINUOUS
 10
41.350894
 20
15.283904
 11
41.684725
 21
15.564017
 39
0
 62
0
  0
LINE
  8
default
  6
CONTINUOUS
 10
41.684725
 20
15.564017
 11
41.964834
 21
15.897843
 39
0
 62
0
  0
LINE
  8
default
  6
CONTINUOUS
 10
41.964834
 20
15.897843
 11
42.182722
 21
16.275240
 39
0
 62
0
  0
LINE
  8
default
  6
CONTINUOUS
 10
42.182722
 20
16.275240
 11
42.331766
 21
16.684736
 39
0
 62
0
  0
LINE
  8
default
  6
CONTINUOUS
 10
42.331766
 20
16.684736
 11
42.407434
 21
17.113895
 39
0
 62
0
  0
LINE
  8
default
  6
CONTINUOUS
 10
42.407434
 20
17.113895
 11
42.407434
 21
17.549670
 39
0
 62
0
  0
LINE
  8
default
  6
CONTINUOUS
 10
42.407434
 20
17.549670
 11
42.331766
 21
17.978832
 39
0
 62
0
  0
LINE
  8
default
  6
CONTINUOUS
 10
42.331766
 20
17.978832
 11
42.182722
 21
18.388329
 39
0
 62
0
  0
LINE
  8
default
  6
CONTINUOUS
 10
42.182722
 20
18.388329
 11
41.964834
 21
18.765725
 39
0
 62
0
  0
LINE
  8
default
  6
CONTINUOUS
 10
41.964834
 20
18.765725
 11
41.684725
 21
19.099547
 39
0
 62
0
  0
LINE
  8
default
  6
CONTINUOUS
 10
41.684725
 20
19.099547
 11
41.350894
 21
19.379665
 39
0
 62
0
  0
LINE
  8
default
  6
CONTINUOUS
 10
41.350894
 20
19.379665
 11
40.973498
 21
19.597553
 39
0
 62
0
  0
LINE
  8
default
  6
CONTINUOUS
 10
40.973498
 20
19.597553
 11
40.563999
 21
19.746599
 39
0
 62
0
  0
LINE
  8
default
  6
CONTINUOUS
 10
40.563999
 20
19.746599
 11
40.134841
 21
19.822271
 39
0
 62
0
  0
LINE
  8
default
  6
CONTINUOUS
 10
40.134841
 20
19.822271
 11
39.699061
 21
19.822271
 39
0
 62
0
  0
LINE
  8
default
  6
CONTINUOUS
 10
32.231284
 20
15.934790
 11
31.802128
 21
15.859120
 39
0
 62
0
  0
LINE
  8
default
  6
CONTINUOUS
 10
31.802128
 20
15.859120
 11
31.392629
 21
15.710075
 39
0
 62
0
  0
LINE
  8
default
  6
CONTINUOUS
 10
31.392629
 20
15.710075
 11
31.015236
 21
15.492184
 39
0
 62
0
  0
LINE
  8
default
  6
CONTINUOUS
 10
31.015236
 20
15.492184
 11
30.681409
 21
15.212072
 39
0
 62
0
  0
LINE
  8
default
  6
CONTINUOUS
 10
30.681409
 20
15.212072
 11
30.401296
 21
14.878247
 39
0
 62
0
  0
LINE
  8
default
  6
CONTINUOUS
 10
30.401296
 20
14.878247
 11
30.183405
 21
14.500849
 39
0
 62
0
  0
LINE
  8
default
  6
CONTINUOUS
 10
30.183405
 20
14.500849
 11
30.034359
 21
14.091353
 39
0
 62
0
  0
LINE
  8
default
  6
CONTINUOUS
 10
30.034359
 20
14.091353
 11
29.958689
 21
13.662195
 39
0
 62
0
  0
LINE
  8
default
  6
CONTINUOUS
 10
29.958689
 20
13.662195
 11
29.958689
 21
13.226414
 39
0
 62
0
  0
LINE
  8
default
  6
CONTINUOUS
 10
29.958689
 20
13.226414
 11
30.034359
 21
12.797258
 39
0
 62
0
  0
LINE
  8
default
  6
CONTINUOUS
 10
30.034359
 20
12.797258
 11
30.183405
 21
12.387760
 39
0
 62
0
  0
LINE
  8
default
  6
CONTINUOUS
 10
30.183405
 20
12.387760
 11
30.401296
 21
12.010362
 39
0
 62
0
  0
LINE
  8
default
  6
CONTINUOUS
 10
30.401296
 20
12.010362
 11
30.681409
 21
11.676539
 39
0
 62
0
  0
LINE
  8
default
  6
CONTINUOUS
 10
30.681409
 20
11.676539
 11
31.015236
 21
11.396424
 39
0
 62
0
  0
LINE
  8
default
  6
CONTINUOUS
 10
31.015236
 20
11.396424
 11
31.392629
 21
11.178536
 39
0
 62
0
  0
LINE
  8
default
  6
CONTINUOUS
 10
31.392629
 20
11.178536
 11
31.802128
 21
11.029491
 39
0
 62
0
  0
LINE
  8
default
  6
CONTINUOUS
 10
31.802128
 20
11.029491
 11
32.231284
 21
10.953819
 39
0
 62
0
  0
LINE
  8
default
  6
CONTINUOUS
 10
32.231284
 20
10.953819
 11
32.667064
 21
10.953819
 39
0
 62
0
  0
LINE
  8
default
  6
CONTINUOUS
 10
32.667064
 20
10.953819
 11
33.096226
 21
11.029491
 39
0
 62
0
  0
LINE
  8
default
  6
CONTINUOUS
 10
33.096226
 20
11.029491
 11
33.505721
 21
11.178536
 39
0
 62
0
  0
LINE
  8
default
  6
CONTINUOUS
 10
33.505721
 20
11.178536
 11
33.883118
 21
11.396424
 39
0
 62
0
  0
LINE
  8
default
  6
CONTINUOUS
 10
33.883118
 20
11.396424
 11
34.216941
 21
11.676539
 39
0
 62
0
  0
LINE
  8
default
  6
CONTINUOUS
 10
34.216941
 20
11.676539
 11
34.497054
 21
12.010362
 39
0
 62
0
  0
LINE
  8
default
  6
CONTINUOUS
 10
34.497054
 20
12.010362
 11
34.714946
 21
12.387760
 39
0
 62
0
  0
LINE
  8
default
  6
CONTINUOUS
 10
34.714946
 20
12.387760
 11
34.863990
 21
12.797258
 39
0
 62
0
  0
LINE
  8
default
  6
CONTINUOUS
 10
34.863990
 20
12.797258
 11
34.939663
 21
13.226414
 39
0
 62
0
  0
LINE
  8
default
  6
CONTINUOUS
 10
34.939663
 20
13.226414
 11
34.939663
 21
13.662195
 39
0
 62
0
  0
LINE
  8
default
  6
CONTINUOUS
 10
34.939663
 20
13.662195
 11
34.863990
 21
14.091353
 39
0
 62
0
  0
LINE
  8
default
  6
CONTINUOUS
 10
34.863990
 20
14.091353
 11
34.714946
 21
14.500849
 39
0
 62
0
  0
LINE
  8
default
  6
CONTINUOUS
 10
34.714946
 20
14.500849
 11
34.497054
 21
14.878247
 39
0
 62
0
  0
LINE
  8
default
  6
CONTINUOUS
 10
34.497054
 20
14.878247
 11
34.216941
 21
15.212072
 39
0
 62
0
  0
LINE
  8
default
  6
CONTINUOUS
 10
34.216941
 20
15.212072
 11
33.883118
 21
15.492184
 39
0
 62
0
  0
LINE
  8
default
  6
CONTINUOUS
 10
33.883118
 20
15.492184
 11
33.505721
 21
15.710075
 39
0
 62
0
  0
LINE
  8
default
  6
CONTINUOUS
 10
33.505721
 20
15.710075
 11
33.096226
 21
15.859120
 39
0
 62
0
  0
LINE
  8
default
  6
CONTINUOUS
 10
33.096226
 20
15.859120
 11
32.667064
 21
15.934790
 39
0
 62
0
  0
LINE
  8
default
  6
CONTINUOUS
 10
32.667064
 20
15.934790
 11
32.231284
 21
15.934790
 39
0
 62
0
  0
LINE
  8
default
  6
CONTINUOUS
 10
31.890902
 20
22.545344
 11
29.219215
 21
20.739472
 39
0
 62
0
  0
LINE
  8
default
  6
CONTINUOUS
 10
29.219215
 20
20.739472
 11
26.901702
 21
18.497107
 39
0
 62
0
  0
LINE
  8
default
  6
CONTINUOUS
 10
26.901702
 20
18.497107
 11
25.008780
 21
15.886368
 39
0
 62
0
  0
LINE
  8
default
  6
CONTINUOUS
 10
25.008780
 20
15.886368
 11
23.597967
 21
12.986593
 39
0
 62
0
  0
LINE
  8
default
  6
CONTINUOUS
 10
23.597967
 20
12.986593
 11
22.712126
 21
9.885889
 39
0
 62
0
  0
LINE
  8
default
  6
CONTINUOUS
 10
22.712126
 20
9.885889
 11
22.389487
 21
7.088692
 39
0
 62
0
  0
LINE
  8
default
  6
CONTINUOUS
 10
40.450348
 20
22.367987
 11
36.971266
 21
23.937126
 39
0
 62
0
  0
LINE
  8
default
  6
CONTINUOUS
 10
36.971266
 20
23.937126
 11
33.272559
 21
24.878292
 39
0
 62
0
  0
LINE
  8
default
  6
CONTINUOUS
 10
33.272559
 20
24.878292
 11
29.466617
 21
25.162885
 39
0
 62
0
  0
LINE
  8
default
  6
CONTINUOUS
 10
29.466617
 20
25.162885
 11
25.669073
 21
24.782261
 39
0
 62
0
  0
LINE
  8
default
  6
CONTINUOUS
 10
25.669073
 20
24.782261
 11
21.995316
 21
23.747982
 39
0
 62
0
  0
LINE
  8
default
  6
CONTINUOUS
 10
21.995316
 20
23.747982
 11
18.556977
 21
22.091474
 39
0
 62
0
  0
LINE
  8
default
  6
CONTINUOUS
 10
18.556977
 20
22.091474
 11
15.458521
 21
19.863071
 39
0
 62
0
  0
LINE
  8
default
  6
CONTINUOUS
 10
15.458521
 20
19.863071
 11
12.794094
 21
17.130483
 39
0
 62
0
  0
LINE
  8
default
  6
CONTINUOUS
 10
12.794094
 20
17.130483
 11
10.644657
 21
13.976735
 39
0
 62
0
  0
LINE
  8
default
  6
CONTINUOUS
 10
10.644657
 20
13.976735
 11
9.075518
 21
10.497654
 39
0
 62
0
  0
LINE
  8
default
  6
CONTINUOUS
 10
9.075518
 20
10.497654
 11
8.134352
 21
6.798949
 39
0
 62
0
  0
LINE
  8
default
  6
CONTINUOUS
 10
8.134352
 20
6.798949
 11
7.849758
 21
2.993004
 39
0
 62
0
  0
LINE
  8
default
  6
CONTINUOUS
 10
7.849758
 20
2.993004
 11
7.931330
 21
1.361231
 39
0
 62
0
  0
LINE
  8
default
  6
CONTINUOUS
 10
40.450348
 20
22.367987
 11
37.679422
 21
22.051144
 39
0
 62
0
  0
LINE
  8
default
  6
CONTINUOUS
 10
37.679422
 20
22.051144
 11
35.005607
 21
21.257944
 39
0
 62
0
  0
LINE
  8
default
  6
CONTINUOUS
 10
35.005607
 20
21.257944
 11
32.510155
 21
20.012494
 39
0
 62
0
  0
LINE
  8
default
  6
CONTINUOUS
 10
32.510155
 20
20.012494
 11
30.268883
 21
18.352634
 39
0
 62
0
  0
LINE
  8
default
  6
CONTINUOUS
 10
30.268883
 20
18.352634
 11
28.349894
 21
16.328798
 39
0
 62
0
  0
LINE
  8
default
  6
CONTINUOUS
 10
28.349894
 20
16.328798
 11
26.811496
 21
14.002478
 39
0
 62
0
  0
LINE
  8
default
  6
CONTINUOUS
 10
26.811496
 20
14.002478
 11
25.700429
 21
11.444362
 39
0
 62
0
  0
LINE
  8
default
  6
CONTINUOUS
 10
36.791505
 20
92.736385
 11
35.839355
 21
89.492439
 39
0
 62
0
  0
LINE
  8
default
  6
CONTINUOUS
 10
35.839355
 20
89.492439
 11
35.464974
 21
86.132450
 39
0
 62
0
  0
LINE
  8
default
  6
CONTINUOUS
 10
35.464974
 20
86.132450
 11
35.679736
 21
82.758480
 39
0
 62
0
  0
LINE
  8
default
  6
CONTINUOUS
 10
35.679736
 20
82.758480
 11
36.477118
 21
79.473065
 39
0
 62
0
  0
LINE
  8
default
  6
CONTINUOUS
 10
36.477118
 20
79.473065
 11
37.832897
 21
76.376028
 39
0
 62
0
  0
LINE
  8
default
  6
CONTINUOUS
 10
37.832897
 20
76.376028
 11
39.705868
 21
73.561480
 39
0
 62
0
  0
LINE
  8
default
  6
CONTINUOUS
 10
39.705868
 20
73.561480
 11
42.039133
 21
71.114923
 39
0
 62
0
  0
LINE
  8
default
  6
CONTINUOUS
 10
42.039133
 20
71.114923
 11
44.761783
 21
69.110695
 39
0
 62
0
  0
LINE
  8
default
  6
CONTINUOUS
 10
44.761783
 20
69.110695
 11
47.791105
 21
67.609704
 39
0
 62
0
  0
LINE
  8
default
  6
CONTINUOUS
 10
47.791105
 20
67.609704
 11
51.035046
 21
66.657554
 39
0
 62
0
  0
LINE
  8
default
  6
CONTINUOUS
 10
51.035046
 20
66.657554
 11
51.486719
 21
66.572381
 39
0
 62
0
  0
LINE
  8
default
  6
CONTINUOUS
 10
36.791505
 20
92.736385
 11
37.844358
 21
89.688342
 39
0
 62
0
  0
LINE
  8
default
  6
CONTINUOUS
 10
37.844358
 20
89.688342
 11
39.410505
 21
86.869411
 39
0
 62
0
  0
LINE
  8
default
  6
CONTINUOUS
 10
39.410505
 20
86.869411
 11
41.442362
 21
84.365295
 39
0
 62
0
  0
LINE
  8
default
  6
CONTINUOUS
 10
41.442362
 20
84.365295
 11
43.878184
 21
82.252040
 39
0
 62
0
  0
LINE
  8
default
  6
CONTINUOUS
 10
43.878184
 20
82.252040
 11
46.643966
 21
80.593860
 39
0
 62
0
  0
LINE
  8
default
  6
CONTINUOUS
 10
46.643966
 20
80.593860
 11
49.262345
 21
79.558251
 39
0
 62
0
  0
LINE
  8
default
  6
CONTINUOUS
 10
51.483748
 20
66.555574
 11
52.700216
 21
66.449141
 39
0
 62
0
  0
LINE
  8
default
  6
CONTINUOUS
 10
52.700216
 20
66.449141
 11
53.916684
 21
66.555574
 39
0
 62
0
  0
LINE
  8
default
  6
CONTINUOUS
 10
53.916684
 20
66.555574
 11
55.096188
 21
66.871619
 39
0
 62
0
  0
LINE
  8
default
  6
CONTINUOUS
 10
55.096188
 20
66.871619
 11
56.202889
 21
67.387678
 39
0
 62
0
  0
LINE
  8
default
  6
CONTINUOUS
 10
56.202889
 20
67.387678
 11
57.203166
 21
68.088082
 39
0
 62
0
  0
LINE
  8
default
  6
CONTINUOUS
 10
57.203166
 20
68.088082
 11
58.066621
 21
68.951537
 39
0
 62
0
  0
LINE
  8
default
  6
CONTINUOUS
 10
58.066621
 20
68.951537
 11
58.767025
 21
69.951819
 39
0
 62
0
  0
LINE
  8
default
  6
CONTINUOUS
 10
58.767025
 20
69.951819
 11
59.283089
 21
71.058524
 39
0
 62
0
  0
LINE
  8
default
  6
CONTINUOUS
 10
59.283089
 20
71.058524
 11
59.599138
 21
72.238028
 39
0
 62
0
  0
LINE
  8
default
  6
CONTINUOUS
 10
59.599138
 20
72.238028
 11
59.705562
 21
73.454492
 39
0
 62
0
  0
LINE
  8
default
  6
CONTINUOUS
 10
59.705562
 20
73.454492
 11
59.599138
 21
74.670955
 39
0
 62
0
  0
LINE
  8
default
  6
CONTINUOUS
 10
59.599138
 20
74.670955
 11
59.283089
 21
75.850463
 39
0
 62
0
  0
LINE
  8
default
  6
CONTINUOUS
 10
59.283089
 20
75.850463
 11
58.767025
 21
76.957165
 39
0
 62
0
  0
LINE
  8
default
  6
CONTINUOUS
 10
58.767025
 20
76.957165
 11
58.066621
 21
77.957446
 39
0
 62
0
  0
LINE
  8
default
  6
CONTINUOUS
 10
58.066621
 20
77.957446
 11
57.203166
 21
78.820897
 39
0
 62
0
  0
LINE
  8
default
  6
CONTINUOUS
 10
57.203166
 20
78.820897
 11
56.202889
 21
79.521297
 39
0
 62
0
  0
LINE
  8
default
  6
CONTINUOUS
 10
56.202889
 20
79.521297
 11
55.096188
 21
80.037369
 39
0
 62
0
  0
LINE
  8
default
  6
CONTINUOUS
 10
55.096188
 20
80.037369
 11
53.916684
 21
80.353418
 39
0
 62
0
  0
LINE
  8
default
  6
CONTINUOUS
 10
53.916684
 20
80.353418
 11
52.700216
 21
80.459838
 39
0
 62
0
  0
LINE
  8
default
  6
CONTINUOUS
 10
52.700216
 20
80.459838
 11
51.483748
 21
80.353418
 39
0
 62
0
  0
LINE
  8
default
  6
CONTINUOUS
 10
51.483748
 20
80.353418
 11
50.304244
 21
80.037369
 39
0
 62
0
  0
LINE
  8
default
  6
CONTINUOUS
 10
50.304244
 20
80.037369
 11
49.262345
 21
79.558260
 39
0
 62
0
  0
LINE
  8
default
  6
CONTINUOUS
 10
86.317897
 20
56.011125
 11
85.888744
 21
55.935457
 39
0
 62
0
  0
LINE
  8
default
  6
CONTINUOUS
 10
85.888744
 20
55.935457
 11
85.479241
 21
55.786413
 39
0
 62
0
  0
LINE
  8
default
  6
CONTINUOUS
 10
85.479241
 20
55.786413
 11
85.101845
 21
55.568525
 39
0
 62
0
  0
LINE
  8
default
  6
CONTINUOUS
 10
85.101845
 20
55.568525
 11
84.768019
 21
55.288411
 39
0
 62
0
  0
LINE
  8
default
  6
CONTINUOUS
 10
84.768019
 20
55.288411
 11
84.487909
 21
54.954585
 39
0
 62
0
  0
LINE
  8
default
  6
CONTINUOUS
 10
84.487909
 20
54.954585
 11
84.270021
 21
54.577189
 39
0
 62
0
  0
LINE
  8
default
  6
CONTINUOUS
 10
84.270021
 20
54.577189
 11
84.120969
 21
54.167690
 39
0
 62
0
  0
LINE
  8
default
  6
CONTINUOUS
 10
84.120969
 20
54.167690
 11
84.045292
 21
53.738533
 39
0
 62
0
  0
LINE
  8
default
  6
CONTINUOUS
 10
84.045292
 20
53.738533
 11
84.045292
 21
53.302752
 39
0
 62
0
  0
LINE
  8
default
  6
CONTINUOUS
 10
84.045292
 20
53.302752
 11
84.120969
 21
52.873595
 39
0
 62
0
  0
LINE
  8
default
  6
CONTINUOUS
 10
84.120969
 20
52.873595
 11
84.270021
 21
52.464100
 39
0
 62
0
  0
LINE
  8
default
  6
CONTINUOUS
 10
84.270021
 20
52.464100
 11
84.487909
 21
52.086705
 39
0
 62
0
  0
LINE
  8
default
  6
CONTINUOUS
 10
84.487909
 20
52.086705
 11
84.768019
 21
51.752878
 39
0
 62
0
  0
LINE
  8
default
  6
CONTINUOUS
 10
84.768019
 20
51.752878
 11
85.101845
 21
51.472764
 39
0
 62
0
  0
LINE
  8
default
  6
CONTINUOUS
 10
85.101845
 20
51.472764
 11
85.479241
 21
51.254876
 39
0
 62
0
  0
LINE
  8
default
  6
CONTINUOUS
 10
85.479241
 20
51.254876
 11
85.888744
 21
51.105832
 39
0
 62
0
  0
LINE
  8
default
  6
CONTINUOUS
 10
85.888744
 20
51.105832
 11
86.317897
 21
51.030160
 39
0
 62
0
  0
LINE
  8
default
  6
CONTINUOUS
 10
86.317897
 20
51.030160
 11
86.753673
 21
51.030160
 39
0
 62
0
  0
LINE
  8
default
  6
CONTINUOUS
 10
86.753673
 20
51.030160
 11
87.182826
 21
51.105832
 39
0
 62
0
  0
LINE
  8
default
  6
CONTINUOUS
 10
87.182826
 20
51.105832
 11
87.592330
 21
51.254876
 39
0
 62
0
  0
LINE
  8
default
  6
CONTINUOUS
 10
87.592330
 20
51.254876
 11
87.969725
 21
51.472764
 39
0
 62
0
  0
LINE
  8
default
  6
CONTINUOUS
 10
87.969725
 20
51.472764
 11
88.303552
 21
51.752878
 39
0
 62
0
  0
LINE
  8
default
  6
CONTINUOUS
 10
88.303552
 20
51.752878
 11
88.583661
 21
52.086705
 39
0
 62
0
  0
LINE
  8
default
  6
CONTINUOUS
 10
88.583661
 20
52.086705
 11
88.801549
 21
52.464100
 39
0
 62
0
  0
LINE
  8
default
  6
CONTINUOUS
 10
88.801549
 20
52.464100
 11
88.950602
 21
52.873595
 39
0
 62
0
  0
LINE
  8
default
  6
CONTINUOUS
 10
88.950602
 20
52.873595
 11
89.026279
 21
53.302752
 39
0
 62
0
  0
LINE
  8
default
  6
CONTINUOUS
 10
89.026279
 20
53.302752
 11
89.026279
 21
53.738533
 39
0
 62
0
  0
LINE
  8
default
  6
CONTINUOUS
 10
89.026279
 20
53.738533
 11
88.950602
 21
54.167690
 39
0
 62
0
  0
LINE
  8
default
  6
CONTINUOUS
 10
88.950602
 20
54.167690
 11
88.801549
 21
54.577189
 39
0
 62
0
  0
LINE
  8
default
  6
CONTINUOUS
 10
88.801549
 20
54.577189
 11
88.583661
 21
54.954585
 39
0
 62
0
  0
LINE
  8
default
  6
CONTINUOUS
 10
88.583661
 20
54.954585
 11
88.303552
 21
55.288411
 39
0
 62
0
  0
LINE
  8
default
  6
CONTINUOUS
 10
88.303552
 20
55.288411
 11
87.969725
 21
55.568525
 39
0
 62
0
  0
LINE
  8
default
  6
CONTINUOUS
 10
87.969725
 20
55.568525
 11
87.592330
 21
55.786413
 39
0
 62
0
  0
LINE
  8
default
  6
CONTINUOUS
 10
87.592330
 20
55.786413
 11
87.182826
 21
55.935457
 39
0
 62
0
  0
LINE
  8
default
  6
CONTINUOUS
 10
87.182826
 20
55.935457
 11
86.753673
 21
56.011125
 39
0
 62
0
  0
LINE
  8
default
  6
CONTINUOUS
 10
86.753673
 20
56.011125
 11
86.317897
 21
56.011125
 39
0
 62
0
  0
LINE
  8
default
  6
CONTINUOUS
 10
93.672030
 20
43.829187
 11
93.242877
 21
43.753519
 39
0
 62
0
  0
LINE
  8
default
  6
CONTINUOUS
 10
93.242877
 20
43.753519
 11
92.833374
 21
43.604470
 39
0
 62
0
  0
LINE
  8
default
  6
CONTINUOUS
 10
92.833374
 20
43.604470
 11
92.455978
 21
43.386583
 39
0
 62
0
  0
LINE
  8
default
  6
CONTINUOUS
 10
92.455978
 20
43.386583
 11
92.122152
 21
43.106469
 39
0
 62
0
  0
LINE
  8
default
  6
CONTINUOUS
 10
92.122152
 20
43.106469
 11
91.842043
 21
42.772638
 39
0
 62
0
  0
LINE
  8
default
  6
CONTINUOUS
 10
91.842043
 20
42.772638
 11
91.624146
 21
42.395247
 39
0
 62
0
  0
LINE
  8
default
  6
CONTINUOUS
 10
91.624146
 20
42.395247
 11
91.475102
 21
41.985748
 39
0
 62
0
  0
LINE
  8
default
  6
CONTINUOUS
 10
91.475102
 20
41.985748
 11
91.399425
 21
41.556590
 39
0
 62
0
  0
LINE
  8
default
  6
CONTINUOUS
 10
91.399425
 20
41.556590
 11
91.399425
 21
41.120810
 39
0
 62
0
  0
LINE
  8
default
  6
CONTINUOUS
 10
91.399425
 20
41.120810
 11
91.475102
 21
40.691648
 39
0
 62
0
  0
LINE
  8
default
  6
CONTINUOUS
 10
91.475102
 20
40.691648
 11
91.624146
 21
40.282158
 39
0
 62
0
  0
LINE
  8
default
  6
CONTINUOUS
 10
91.624146
 20
40.282158
 11
91.842043
 21
39.904762
 39
0
 62
0
  0
LINE
  8
default
  6
CONTINUOUS
 10
91.842043
 20
39.904762
 11
92.122152
 21
39.570935
 39
0
 62
0
  0
LINE
  8
default
  6
CONTINUOUS
 10
92.122152
 20
39.570935
 11
92.455978
 21
39.290822
 39
0
 62
0
  0
LINE
  8
default
  6
CONTINUOUS
 10
92.455978
 20
39.290822
 11
92.833374
 21
39.072934
 39
0
 62
0
  0
LINE
  8
default
  6
CONTINUOUS
 10
92.833374
 20
39.072934
 11
93.242877
 21
38.923890
 39
0
 62
0
  0
LINE
  8
default
  6
CONTINUOUS
 10
93.242877
 20
38.923890
 11
93.672030
 21
38.848213
 39
0
 62
0
  0
LINE
  8
default
  6
CONTINUOUS
 10
93.672030
 20
38.848213
 11
94.107806
 21
38.848213
 39
0
 62
0
  0
LINE
  8
default
  6
CONTINUOUS
 10
94.107806
 20
38.848213
 11
94.536960
 21
38.923890
 39
0
 62
0
  0
LINE
  8
default
  6
CONTINUOUS
 10
94.536960
 20
38.923890
 11
94.946463
 21
39.072934
 39
0
 62
0
  0
LINE
  8
default
  6
CONTINUOUS
 10
94.946463
 20
39.072934
 11
95.323859
 21
39.290822
 39
0
 62
0
  0
LINE
  8
default
  6
CONTINUOUS
 10
95.323859
 20
39.290822
 11
95.657685
 21
39.570935
 39
0
 62
0
  0
LINE
  8
default
  6
CONTINUOUS
 10
95.657685
 20
39.570935
 11
95.937794
 21
39.904762
 39
0
 62
0
  0
LINE
  8
default
  6
CONTINUOUS
 10
95.937794
 20
39.904762
 11
96.155682
 21
40.282158
 39
0
 62
0
  0
LINE
  8
default
  6
CONTINUOUS
 10
96.155682
 20
40.282158
 11
96.304735
 21
40.691648
 39
0
 62
0
  0
LINE
  8
default
  6
CONTINUOUS
 10
96.304735
 20
40.691648
 11
96.380403
 21
41.120810
 39
0
 62
0
  0
LINE
  8
default
  6
CONTINUOUS
 10
96.380403
 20
41.120810
 11
96.380403
 21
41.556590
 39
0
 62
0
  0
LINE
  8
default
  6
CONTINUOUS
 10
96.380403
 20
41.556590
 11
96.304735
 21
41.985748
 39
0
 62
0
  0
LINE
  8
default
  6
CONTINUOUS
 10
96.304735
 20
41.985748
 11
96.155682
 21
42.395247
 39
0
 62
0
  0
LINE
  8
default
  6
CONTINUOUS
 10
96.155682
 20
42.395247
 11
95.937794
 21
42.772638
 39
0
 62
0
  0
LINE
  8
default
  6
CONTINUOUS
 10
95.937794
 20
42.772638
 11
95.657685
 21
43.106469
 39
0
 62
0
  0
LINE
  8
default
  6
CONTINUOUS
 10
95.657685
 20
43.106469
 11
95.323859
 21
43.386583
 39
0
 62
0
  0
LINE
  8
default
  6
CONTINUOUS
 10
95.323859
 20
43.386583
 11
94.946463
 21
43.604470
 39
0
 62
0
  0
LINE
  8
default
  6
CONTINUOUS
 10
94.946463
 20
43.604470
 11
94.536960
 21
43.753519
 39
0
 62
0
  0
LINE
  8
default
  6
CONTINUOUS
 10
94.536960
 20
43.753519
 11
94.107806
 21
43.829187
 39
0
 62
0
  0
LINE
  8
default
  6
CONTINUOUS
 10
94.107806
 20
43.829187
 11
93.672030
 21
43.829187
 39
0
 62
0
  0
LINE
  8
default
  6
CONTINUOUS
 10
9.974745
 20
89.469491
 11
10.224697
 21
89.826450
 39
0
 62
0
  0
LINE
  8
default
  6
CONTINUOUS
 10
10.224697
 20
89.826450
 11
10.408865
 21
90.221404
 39
0
 62
0
  0
LINE
  8
default
  6
CONTINUOUS
 10
10.408865
 20
90.221404
 11
10.521653
 21
90.642333
 39
0
 62
0
  0
LINE
  8
default
  6
CONTINUOUS
 10
10.521653
 20
90.642333
 11
10.559633
 21
91.076456
 39
0
 62
0
  0
LINE
  8
default
  6
CONTINUOUS
 10
10.559633
 20
91.076456
 11
10.521653
 21
91.510578
 39
0
 62
0
  0
LINE
  8
default
  6
CONTINUOUS
 10
10.521653
 20
91.510578
 11
10.408865
 21
91.931499
 39
0
 62
0
  0
LINE
  8
default
  6
CONTINUOUS
 10
10.408865
 20
91.931499
 11
10.224697
 21
92.326453
 39
0
 62
0
  0
LINE
  8
default
  6
CONTINUOUS
 10
10.224697
 20
92.326453
 11
9.974745
 21
92.683429
 39
0
 62
0
  0
LINE
  8
default
  6
CONTINUOUS
 10
9.974745
 20
92.683429
 11
9.666604
 21
92.991569
 39
0
 62
0
  0
LINE
  8
default
  6
CONTINUOUS
 10
9.666604
 20
92.991569
 11
9.309633
 21
93.241513
 39
0
 62
0
  0
LINE
  8
default
  6
CONTINUOUS
 10
9.309633
 20
93.241513
 11
8.914684
 21
93.425692
 39
0
 62
0
  0
LINE
  8
default
  6
CONTINUOUS
 10
8.914684
 20
93.425692
 11
8.493754
 21
93.538472
 39
0
 62
0
  0
LINE
  8
default
  6
CONTINUOUS
 10
8.493754
 20
93.538472
 11
8.059633
 21
93.576450
 39
0
 62
0
  0
LINE
  8
default
  6
CONTINUOUS
 10
8.059633
 20
93.576450
 11
7.625513
 21
93.538472
 39
0
 62
0
  0
LINE
  8
default
  6
CONTINUOUS
 10
7.625513
 20
93.538472
 11
7.204583
 21
93.425692
 39
0
 62
0
  0
LINE
  8
default
  6
CONTINUOUS
 10
7.204583
 20
93.425692
 11
6.809634
 21
93.241513
 39
0
 62
0
  0
LINE
  8
default
  6
CONTINUOUS
 10
6.809634
 20
93.241513
 11
6.452664
 21
92.991569
 39
0
 62
0
  0
LINE
  8
default
  6
CONTINUOUS
 10
6.452664
 20
92.991569
 11
6.144522
 21
92.683429
 39
0
 62
0
  0
LINE
  8
default
  6
CONTINUOUS
 10
6.144522
 20
92.683429
 11
5.894570
 21
92.326453
 39
0
 62
0
  0
LINE
  8
default
  6
CONTINUOUS
 10
5.894570
 20
92.326453
 11
5.710402
 21
91.931499
 39
0
 62
0
  0
LINE
  8
default
  6
CONTINUOUS
 10
5.710402
 20
91.931499
 11
5.597614
 21
91.510578
 39
0
 62
0
  0
LINE
  8
default
  6
CONTINUOUS
 10
5.597614
 20
91.510578
 11
5.559634
 21
91.076456
 39
0
 62
0
  0
LINE
  8
default
  6
CONTINUOUS
 10
5.559634
 20
91.076456
 11
5.597614
 21
90.642333
 39
0
 62
0
  0
LINE
  8
default
  6
CONTINUOUS
 10
5.597614
 20
90.642333
 11
5.710402
 21
90.221404
 39
0
 62
0
  0
LINE
  8
default
  6
CONTINUOUS
 10
5.710402
 20
90.221404
 11
5.894570
 21
89.826450
 39
0
 62
0
  0
LINE
  8
default
  6
CONTINUOUS
 10
5.894570
 20
89.826450
 11
6.144522
 21
89.469491
 39
0
 62
0
  0
LINE
  8
default
  6
CONTINUOUS
 10
6.144522
 20
89.469491
 11
6.452664
 21
89.161342
 39
0
 62
0
  0
LINE
  8
default
  6
CONTINUOUS
 10
6.452664
 20
89.161342
 11
6.809634
 21
88.911390
 39
0
 62
0
  0
LINE
  8
default
  6
CONTINUOUS
 10
6.809634
 20
88.911390
 11
7.204583
 21
88.727228
 39
0
 62
0
  0
LINE
  8
default
  6
CONTINUOUS
 10
7.204583
 20
88.727228
 11
7.625513
 21
88.614431
 39
0
 62
0
  0
LINE
  8
default
  6
CONTINUOUS
 10
7.625513
 20
88.614431
 11
8.059633
 21
88.576452
 39
0
 62
0
  0
LINE
  8
default
  6
CONTINUOUS
 10
8.059633
 20
88.576452
 11
8.493754
 21
88.614431
 39
0
 62
0
  0
LINE
  8
default
  6
CONTINUOUS
 10
8.493754
 20
88.614431
 11
8.914684
 21
88.727228
 39
0
 62
0
  0
LINE
  8
default
  6
CONTINUOUS
 10
8.914684
 20
88.727228
 11
9.309633
 21
88.911390
 39
0
 62
0
  0
LINE
  8
default
  6
CONTINUOUS
 10
9.309633
 20
88.911390
 11
9.666604
 21
89.161342
 39
0
 62
0
  0
LINE
  8
default
  6
CONTINUOUS
 10
9.666604
 20
89.161342
 11
9.974745
 21
89.469491
 39
0
 62
0
  0
LINE
  8
default
  6
CONTINUOUS
 10
21.138208
 20
87.955929
 11
21.062536
 21
88.385082
 39
0
 62
0
  0
LINE
  8
default
  6
CONTINUOUS
 10
21.062536
 20
88.385082
 11
20.913490
 21
88.794585
 39
0
 62
0
  0
LINE
  8
default
  6
CONTINUOUS
 10
20.913490
 20
88.794585
 11
20.695597
 21
89.171981
 39
0
 62
0
  0
LINE
  8
default
  6
CONTINUOUS
 10
20.695597
 20
89.171981
 11
20.415486
 21
89.505807
 39
0
 62
0
  0
LINE
  8
default
  6
CONTINUOUS
 10
20.415486
 20
89.505807
 11
20.081661
 21
89.785917
 39
0
 62
0
  0
LINE
  8
default
  6
CONTINUOUS
 10
20.081661
 20
89.785917
 11
19.704268
 21
90.003805
 39
0
 62
0
  0
LINE
  8
default
  6
CONTINUOUS
 10
19.704268
 20
90.003805
 11
19.294769
 21
90.152857
 39
0
 62
0
  0
LINE
  8
default
  6
CONTINUOUS
 10
19.294769
 20
90.152857
 11
18.865607
 21
90.228525
 39
0
 62
0
  0
LINE
  8
default
  6
CONTINUOUS
 10
18.865607
 20
90.228525
 11
18.429831
 21
90.228525
 39
0
 62
0
  0
LINE
  8
default
  6
CONTINUOUS
 10
18.429831
 20
90.228525
 11
18.000671
 21
90.152857
 39
0
 62
0
  0
LINE
  8
default
  6
CONTINUOUS
 10
18.000671
 20
90.152857
 11
17.591172
 21
90.003805
 39
0
 62
0
  0
LINE
  8
default
  6
CONTINUOUS
 10
17.591172
 20
90.003805
 11
17.213779
 21
89.785917
 39
0
 62
0
  0
LINE
  8
default
  6
CONTINUOUS
 10
17.213779
 20
89.785917
 11
16.879953
 21
89.505807
 39
0
 62
0
  0
LINE
  8
default
  6
CONTINUOUS
 10
16.879953
 20
89.505807
 11
16.599840
 21
89.171981
 39
0
 62
0
  0
LINE
  8
default
  6
CONTINUOUS
 10
16.599840
 20
89.171981
 11
16.381952
 21
88.794585
 39
0
 62
0
  0
LINE
  8
default
  6
CONTINUOUS
 10
16.381952
 20
88.794585
 11
16.232906
 21
88.385082
 39
0
 62
0
  0
LINE
  8
default
  6
CONTINUOUS
 10
16.232906
 20
88.385082
 11
16.157232
 21
87.955929
 39
0
 62
0
  0
LINE
  8
default
  6
CONTINUOUS
 10
16.157232
 20
87.955929
 11
16.157232
 21
87.520153
 39
0
 62
0
  0
LINE
  8
default
  6
CONTINUOUS
 10
16.157232
 20
87.520153
 11
16.232906
 21
87.090999
 39
0
 62
0
  0
LINE
  8
default
  6
CONTINUOUS
 10
16.232906
 20
87.090999
 11
16.381952
 21
86.681496
 39
0
 62
0
  0
LINE
  8
default
  6
CONTINUOUS
 10
16.381952
 20
86.681496
 11
16.599840
 21
86.304100
 39
0
 62
0
  0
LINE
  8
default
  6
CONTINUOUS
 10
16.599840
 20
86.304100
 11
16.879953
 21
85.970274
 39
0
 62
0
  0
LINE
  8
default
  6
CONTINUOUS
 10
16.879953
 20
85.970274
 11
17.213779
 21
85.690165
 39
0
 62
0
  0
LINE
  8
default
  6
CONTINUOUS
 10
17.213779
 20
85.690165
 11
17.591172
 21
85.472277
 39
0
 62
0
  0
LINE
  8
default
  6
CONTINUOUS
 10
17.591172
 20
85.472277
 11
18.000671
 21
85.323224
 39
0
 62
0
  0
LINE
  8
default
  6
CONTINUOUS
 10
18.000671
 20
85.323224
 11
18.429831
 21
85.247547
 39
0
 62
0
  0
LINE
  8
default
  6
CONTINUOUS
 10
18.429831
 20
85.247547
 11
18.865607
 21
85.247547
 39
0
 62
0
  0
LINE
  8
default
  6
CONTINUOUS
 10
18.865607
 20
85.247547
 11
19.294769
 21
85.323224
 39
0
 62
0
  0
LINE
  8
default
  6
CONTINUOUS
 10
19.294769
 20
85.323224
 11
19.704268
 21
85.472277
 39
0
 62
0
  0
LINE
  8
default
  6
CONTINUOUS
 10
19.704268
 20
85.472277
 11
20.081661
 21
85.690165
 39
0
 62
0
  0
LINE
  8
default
  6
CONTINUOUS
 10
20.081661
 20
85.690165
 11
20.415486
 21
85.970274
 39
0
 62
0
  0
LINE
  8
default
  6
CONTINUOUS
 10
20.415486
 20
85.970274
 11
20.695597
 21
86.304100
 39
0
 62
0
  0
LINE
  8
default
  6
CONTINUOUS
 10
20.695597
 20
86.304100
 11
20.913490
 21
86.681496
 39
0
 62
0
  0
LINE
  8
default
  6
CONTINUOUS
 10
20.913490
 20
86.681496
 11
21.062536
 21
87.090999
 39
0
 62
0
  0
LINE
  8
default
  6
CONTINUOUS
 10
21.062536
 20
87.090999
 11
21.138208
 21
87.520153
 39
0
 62
0
  0
LINE
  8
default
  6
CONTINUOUS
 10
21.138208
 20
87.520153
 11
21.138208
 21
87.955929
 39
0
 62
0
  0
LINE
  8
default
  6
CONTINUOUS
 10
30.102199
 20
94.779458
 11
29.745230
 21
95.029410
 39
0
 62
0
  0
LINE
  8
default
  6
CONTINUOUS
 10
29.745230
 20
95.029410
 11
29.350280
 21
95.213580
 39
0
 62
0
  0
LINE
  8
default
  6
CONTINUOUS
 10
29.350280
 20
95.213580
 11
28.929351
 21
95.326361
 39
0
 62
0
  0
LINE
  8
default
  6
CONTINUOUS
 10
28.929351
 20
95.326361
 11
28.495231
 21
95.364339
 39
0
 62
0
  0
LINE
  8
default
  6
CONTINUOUS
 10
28.495231
 20
95.364339
 11
28.061108
 21
95.326361
 39
0
 62
0
  0
LINE
  8
default
  6
CONTINUOUS
 10
28.061108
 20
95.326361
 11
27.640181
 21
95.213580
 39
0
 62
0
  0
LINE
  8
default
  6
CONTINUOUS
 10
27.640181
 20
95.213580
 11
27.245231
 21
95.029410
 39
0
 62
0
  0
LINE
  8
default
  6
CONTINUOUS
 10
27.245231
 20
95.029410
 11
26.888262
 21
94.779458
 39
0
 62
0
  0
LINE
  8
default
  6
CONTINUOUS
 10
26.888262
 20
94.779458
 11
26.580115
 21
94.471309
 39
0
 62
0
  0
LINE
  8
default
  6
CONTINUOUS
 10
26.580115
 20
94.471309
 11
26.330167
 21
94.114342
 39
0
 62
0
  0
LINE
  8
default
  6
CONTINUOUS
 10
26.330167
 20
94.114342
 11
26.145999
 21
93.719396
 39
0
 62
0
  0
LINE
  8
default
  6
CONTINUOUS
 10
26.145999
 20
93.719396
 11
26.033210
 21
93.298449
 39
0
 62
0
  0
LINE
  8
default
  6
CONTINUOUS
 10
26.033210
 20
93.298449
 11
25.995232
 21
92.864345
 39
0
 62
0
  0
LINE
  8
default
  6
CONTINUOUS
 10
25.995232
 20
92.864345
 11
26.033210
 21
92.430222
 39
0
 62
0
  0
LINE
  8
default
  6
CONTINUOUS
 10
26.033210
 20
92.430222
 11
26.145999
 21
92.009293
 39
0
 62
0
  0
LINE
  8
default
  6
CONTINUOUS
 10
26.145999
 20
92.009293
 11
26.330167
 21
91.614338
 39
0
 62
0
  0
LINE
  8
default
  6
CONTINUOUS
 10
26.330167
 20
91.614338
 11
26.580115
 21
91.257380
 39
0
 62
0
  0
LINE
  8
default
  6
CONTINUOUS
 10
26.580115
 20
91.257380
 11
26.888262
 21
90.949231
 39
0
 62
0
  0
LINE
  8
default
  6
CONTINUOUS
 10
26.888262
 20
90.949231
 11
27.245231
 21
90.699279
 39
0
 62
0
  0
LINE
  8
default
  6
CONTINUOUS
 10
27.245231
 20
90.699279
 11
27.640181
 21
90.515117
 39
0
 62
0
  0
LINE
  8
default
  6
CONTINUOUS
 10
27.640181
 20
90.515117
 11
28.061108
 21
90.402328
 39
0
 62
0
  0
LINE
  8
default
  6
CONTINUOUS
 10
28.061108
 20
90.402328
 11
28.495231
 21
90.364341
 39
0
 62
0
  0
LINE
  8
default
  6
CONTINUOUS
 10
28.495231
 20
90.364341
 11
28.929351
 21
90.402328
 39
0
 62
0
  0
LINE
  8
default
  6
CONTINUOUS
 10
28.929351
 20
90.402328
 11
29.350280
 21
90.515117
 39
0
 62
0
  0
LINE
  8
default
  6
CONTINUOUS
 10
29.350280
 20
90.515117
 11
29.745230
 21
90.699279
 39
0
 62
0
  0
LINE
  8
default
  6
CONTINUOUS
 10
29.745230
 20
90.699279
 11
30.102199
 21
90.949231
 39
0
 62
0
  0
LINE
  8
default
  6
CONTINUOUS
 10
30.102199
 20
90.949231
 11
30.410340
 21
91.257380
 39
0
 62
0
  0
LINE
  8
default
  6
CONTINUOUS
 10
30.410340
 20
91.257380
 11
30.660294
 21
91.614338
 39
0
 62
0
  0
LINE
  8
default
  6
CONTINUOUS
 10
30.660294
 20
91.614338
 11
30.844460
 21
92.009293
 39
0
 62
0
  0
LINE
  8
default
  6
CONTINUOUS
 10
30.844460
 20
92.009293
 11
30.957249
 21
92.430222
 39
0
 62
0
  0
LINE
  8
default
  6
CONTINUOUS
 10
30.957249
 20
92.430222
 11
30.995232
 21
92.864345
 39
0
 62
0
  0
LINE
  8
default
  6
CONTINUOUS
 10
30.995232
 20
92.864345
 11
30.957249
 21
93.298449
 39
0
 62
0
  0
LINE
  8
default
  6
CONTINUOUS
 10
30.957249
 20
93.298449
 11
30.844460
 21
93.719396
 39
0
 62
0
  0
LINE
  8
default
  6
CONTINUOUS
 10
30.844460
 20
93.719396
 11
30.660294
 21
94.114342
 39
0
 62
0
  0
LINE
  8
default
  6
CONTINUOUS
 10
30.660294
 20
94.114342
 11
30.410340
 21
94.471309
 39
0
 62
0
  0
LINE
  8
default
  6
CONTINUOUS
 10
30.410340
 20
94.471309
 11
30.102199
 21
94.779458
 39
0
 62
0
  0
LINE
  8
default
  6
CONTINUOUS
 10
37.467072
 20
86.185056
 11
37.642283
 21
83.157948
 39
0
 62
0
  0
LINE
  8
default
  6
CONTINUOUS
 10
37.642283
 20
83.157948
 11
38.340483
 21
80.207270
 39
0
 62
0
  0
LINE
  8
default
  6
CONTINUOUS
 10
38.340483
 20
80.207270
 11
39.540459
 21
77.422643
 39
0
 62
0
  0
LINE
  8
default
  6
CONTINUOUS
 10
39.540459
 20
77.422643
 11
41.205747
 21
74.888703
 39
0
 62
0
  0
LINE
  8
default
  6
CONTINUOUS
 10
41.205747
 20
74.888703
 11
43.285753
 21
72.682435
 39
0
 62
0
  0
LINE
  8
default
  6
CONTINUOUS
 10
43.285753
 20
72.682435
 11
45.717271
 21
70.870872
 39
0
 62
0
  0
LINE
  8
default
  6
CONTINUOUS
 10
45.717271
 20
70.870872
 11
48.426422
 21
69.509057
 39
0
 62
0
  0
LINE
  8
default
  6
CONTINUOUS
 10
48.426422
 20
69.509057
 11
51.330890
 21
68.638375
 39
0
 62
0
  0
LINE
  8
default
  6
CONTINUOUS
 10
51.330890
 20
68.638375
 11
51.834014
 21
68.541999
 39
0
 62
0
  0
LINE
  8
default
  6
CONTINUOUS
 10
37.467072
 20
86.185056
 11
39.647290
 21
83.353851
 39
0
 62
0
  0
LINE
  8
default
  6
CONTINUOUS
 10
39.647290
 20
83.353851
 11
42.286018
 21
80.944248
 39
0
 62
0
  0
LINE
  8
default
  6
CONTINUOUS
 10
42.286018
 20
80.944248
 11
45.303083
 21
79.029459
 39
0
 62
0
  0
LINE
  8
default
  6
CONTINUOUS
 10
45.303083
 20
79.029459
 11
48.606813
 21
77.667669
 39
0
 62
0
  0
LINE
  8
default
  6
CONTINUOUS
 10
48.606813
 20
77.667669
 11
49.599553
 21
77.383790
 39
0
 62
0
  0
LINE
  8
default
  6
CONTINUOUS
 10
51.831048
 20
68.525184
 11
52.700216
 21
68.449144
 39
0
 62
0
  0
LINE
  8
default
  6
CONTINUOUS
 10
52.700216
 20
68.449144
 11
53.569384
 21
68.525184
 39
0
 62
0
  0
LINE
  8
default
  6
CONTINUOUS
 10
53.569384
 20
68.525184
 11
54.412148
 21
68.750998
 39
0
 62
0
  0
LINE
  8
default
  6
CONTINUOUS
 10
54.412148
 20
68.750998
 11
55.202888
 21
69.119737
 39
0
 62
0
  0
LINE
  8
default
  6
CONTINUOUS
 10
55.202888
 20
69.119737
 11
55.917592
 21
69.620170
 39
0
 62
0
  0
LINE
  8
default
  6
CONTINUOUS
 10
55.917592
 20
69.620170
 11
56.534533
 21
70.237111
 39
0
 62
0
  0
LINE
  8
default
  6
CONTINUOUS
 10
56.534533
 20
70.237111
 11
57.034967
 21
70.951820
 39
0
 62
0
  0
LINE
  8
default
  6
CONTINUOUS
 10
57.034967
 20
70.951820
 11
57.403705
 21
71.742560
 39
0
 62
0
  0
LINE
  8
default
  6
CONTINUOUS
 10
57.403705
 20
71.742560
 11
57.629520
 21
72.585319
 39
0
 62
0
  0
LINE
  8
default
  6
CONTINUOUS
 10
57.629520
 20
72.585319
 11
57.705564
 21
73.454492
 39
0
 62
0
  0
LINE
  8
default
  6
CONTINUOUS
 10
57.705564
 20
73.454492
 11
57.629520
 21
74.323664
 39
0
 62
0
  0
LINE
  8
default
  6
CONTINUOUS
 10
57.629520
 20
74.323664
 11
57.403705
 21
75.166424
 39
0
 62
0
  0
LINE
  8
default
  6
CONTINUOUS
 10
57.403705
 20
75.166424
 11
57.034967
 21
75.957172
 39
0
 62
0
  0
LINE
  8
default
  6
CONTINUOUS
 10
57.034967
 20
75.957172
 11
56.534533
 21
76.671868
 39
0
 62
0
  0
LINE
  8
default
  6
CONTINUOUS
 10
56.534533
 20
76.671868
 11
55.917592
 21
77.288813
 39
0
 62
0
  0
LINE
  8
default
  6
CONTINUOUS
 10
55.917592
 20
77.288813
 11
55.202888
 21
77.789251
 39
0
 62
0
  0
LINE
  8
default
  6
CONTINUOUS
 10
55.202888
 20
77.789251
 11
54.412148
 21
78.157985
 39
0
 62
0
  0
LINE
  8
default
  6
CONTINUOUS
 10
54.412148
 20
78.157985
 11
53.569384
 21
78.383800
 39
0
 62
0
  0
LINE
  8
default
  6
CONTINUOUS
 10
53.569384
 20
78.383800
 11
52.700216
 21
78.459826
 39
0
 62
0
  0
LINE
  8
default
  6
CONTINUOUS
 10
52.700216
 20
78.459826
 11
51.831048
 21
78.383800
 39
0
 62
0
  0
LINE
  8
default
  6
CONTINUOUS
 10
51.831048
 20
78.383800
 11
50.988284
 21
78.157985
 39
0
 62
0
  0
LINE
  8
default
  6
CONTINUOUS
 10
50.988284
 20
78.157985
 11
50.197540
 21
77.789251
 39
0
 62
0
  0
LINE
  8
default
  6
CONTINUOUS
 10
50.197540
 20
77.789251
 11
49.599553
 21
77.383790
 39
0
 62
0
  0
LINE
  8
default
  6
CONTINUOUS
 10
51.136453
 20
64.585952
 11
52.700216
 21
64.449143
 39
0
 62
0
  0
LINE
  8
default
  6
CONTINUOUS
 10
52.700216
 20
64.449143
 11
54.263975
 21
64.585952
 39
0
 62
0
  0
LINE
  8
default
  6
CONTINUOUS
 10
54.263975
 20
64.585952
 11
55.780228
 21
64.992231
 39
0
 62
0
  0
LINE
  8
default
  6
CONTINUOUS
 10
55.780228
 20
64.992231
 11
57.202886
 21
65.655632
 39
0
 62
0
  0
LINE
  8
default
  6
CONTINUOUS
 10
57.202886
 20
65.655632
 11
58.488740
 21
66.555990
 39
0
 62
0
  0
LINE
  8
default
  6
CONTINUOUS
 10
58.488740
 20
66.555990
 11
59.598714
 21
67.665963
 39
0
 62
0
  0
LINE
  8
default
  6
CONTINUOUS
 10
59.598714
 20
67.665963
 11
60.499075
 21
68.951822
 39
0
 62
0
  0
LINE
  8
default
  6
CONTINUOUS
 10
60.499075
 20
68.951822
 11
61.162477
 21
70.374480
 39
0
 62
0
  0
LINE
  8
default
  6
CONTINUOUS
 10
61.162477
 20
70.374480
 11
61.568752
 21
71.890733
 39
0
 62
0
  0
LINE
  8
default
  6
CONTINUOUS
 10
61.568752
 20
71.890733
 11
61.705561
 21
73.454492
 39
0
 62
0
  0
LINE
  8
default
  6
CONTINUOUS
 10
61.705561
 20
73.454492
 11
61.568752
 21
75.018255
 39
0
 62
0
  0
LINE
  8
default
  6
CONTINUOUS
 10
61.568752
 20
75.018255
 11
61.162477
 21
76.534503
 39
0
 62
0
  0
LINE
  8
default
  6
CONTINUOUS
 10
61.162477
 20
76.534503
 11
60.499075
 21
77.957166
 39
0
 62
0
  0
LINE
  8
default
  6
CONTINUOUS
 10
60.499075
 20
77.957166
 11
59.598714
 21
79.243016
 39
0
 62
0
  0
LINE
  8
default
  6
CONTINUOUS
 10
59.598714
 20
79.243016
 11
58.488740
 21
80.352989
 39
0
 62
0
  0
LINE
  8
default
  6
CONTINUOUS
 10
58.488740
 20
80.352989
 11
57.202886
 21
81.253351
 39
0
 62
0
  0
LINE
  8
default
  6
CONTINUOUS
 10
57.202886
 20
81.253351
 11
55.780228
 21
81.916743
 39
0
 62
0
  0
LINE
  8
default
  6
CONTINUOUS
 10
55.780228
 20
81.916743
 11
54.263975
 21
82.323027
 39
0
 62
0
  0
LINE
  8
default
  6
CONTINUOUS
 10
54.263975
 20
82.323027
 11
52.700216
 21
82.459841
 39
0
 62
0
  0
LINE
  8
default
  6
CONTINUOUS
 10
52.700216
 20
82.459841
 11
51.136453
 21
82.323027
 39
0
 62
0
  0
LINE
  8
default
  6
CONTINUOUS
 10
51.136453
 20
82.323027
 11
49.620205
 21
81.916743
 39
0
 62
0
  0
LINE
  8
default
  6
CONTINUOUS
 10
49.620205
 20
81.916743
 11
49.117011
 21
81.716274
 39
0
 62
0
  0
LINE
  8
default
  6
CONTINUOUS
 10
99.692589
 20
28.948054
 11
96.944506
 21
27.666600
 39
0
 62
0
  0
LINE
  8
default
  6
CONTINUOUS
 10
96.944506
 20
27.666600
 11
94.460697
 21
25.927422
 39
0
 62
0
  0
LINE
  8
default
  6
CONTINUOUS
 10
94.460697
 20
25.927422
 11
92.316637
 21
23.783356
 39
0
 62
0
  0
LINE
  8
default
  6
CONTINUOUS
 10
92.316637
 20
23.783356
 11
90.577452
 21
21.299546
 39
0
 62
0
  0
LINE
  8
default
  6
CONTINUOUS
 10
90.577452
 20
21.299546
 11
89.296003
 21
18.551472
 39
0
 62
0
  0
LINE
  8
default
  6
CONTINUOUS
 10
89.296003
 20
18.551472
 11
88.511221
 21
15.622620
 39
0
 62
0
  0
LINE
  8
default
  6
CONTINUOUS
 10
88.511221
 20
15.622620
 11
88.246947
 21
12.601990
 39
0
 62
0
  0
LINE
  8
default
  6
CONTINUOUS
 10
88.246947
 20
12.601990
 11
88.511221
 21
9.581363
 39
0
 62
0
  0
LINE
  8
default
  6
CONTINUOUS
 10
88.511221
 20
9.581363
 11
88.607598
 21
9.078241
 39
0
 62
0
  0
LINE
  8
default
  6
CONTINUOUS
 10
99.027421
 20
19.852597
 11
95.917769
 21
18.092153
 39
0
 62
0
  0
LINE
  8
default
  6
CONTINUOUS
 10
95.917769
 20
18.092153
 11
93.161068
 21
15.818469
 39
0
 62
0
  0
LINE
  8
default
  6
CONTINUOUS
 10
93.161068
 20
15.818469
 11
90.841053
 21
13.100630
 39
0
 62
0
  0
LINE
  8
default
  6
CONTINUOUS
 10
90.841053
 20
13.100630
 11
89.028238
 21
10.021219
 39
0
 62
0
  0
LINE
  8
default
  6
CONTINUOUS
 10
89.028238
 20
10.021219
 11
88.607580
 21
9.078257
 39
0
 62
0
  0
LINE
  8
default
  6
CONTINUOUS
 10
28.019950
 20
35.145712
 11
31.050802
 21
35.056428
 39
0
 62
0
  0
LINE
  8
default
  6
CONTINUOUS
 10
31.050802
 20
35.056428
 11
34.051116
 21
35.494798
 39
0
 62
0
  0
LINE
  8
default
  6
CONTINUOUS
 10
34.051116
 20
35.494798
 11
36.929718
 21
36.447510
 39
0
 62
0
  0
LINE
  8
default
  6
CONTINUOUS
 10
36.929718
 20
36.447510
 11
39.599159
 21
37.885617
 39
0
 62
0
  0
LINE
  8
default
  6
CONTINUOUS
 10
39.599159
 20
37.885617
 11
41.978320
 21
39.765420
 39
0
 62
0
  0
LINE
  8
default
  6
CONTINUOUS
 10
41.978320
 20
39.765420
 11
43.994915
 21
42.029798
 39
0
 62
0
  0
LINE
  8
default
  6
CONTINUOUS
 10
43.994915
 20
42.029798
 11
45.587662
 21
44.609949
 39
0
 62
0
  0
LINE
  8
default
  6
CONTINUOUS
 10
45.587662
 20
44.609949
 11
46.708174
 21
47.427484
 39
0
 62
0
  0
LINE
  8
default
  6
CONTINUOUS
 10
46.708174
 20
47.427484
 11
46.848027
 21
47.920293
 39
0
 62
0
  0
LINE
  8
default
  6
CONTINUOUS
 10
28.019967
 20
35.145714
 11
31.030422
 21
37.070880
 39
0
 62
0
  0
LINE
  8
default
  6
CONTINUOUS
 10
31.030422
 20
37.070880
 11
33.660838
 21
39.489559
 39
0
 62
0
  0
LINE
  8
default
  6
CONTINUOUS
 10
33.660838
 20
39.489559
 11
35.831289
 21
42.328253
 39
0
 62
0
  0
LINE
  8
default
  6
CONTINUOUS
 10
35.831289
 20
42.328253
 11
37.475834
 21
45.500722
 39
0
 62
0
  0
LINE
  8
default
  6
CONTINUOUS
 10
37.475834
 20
45.500722
 11
37.845158
 21
46.464945
 39
0
 62
0
  0
LINE
  8
default
  6
CONTINUOUS
 10
46.864523
 20
47.915879
 11
47.016030
 21
48.775109
 39
0
 62
0
  0
LINE
  8
default
  6
CONTINUOUS
 10
47.016030
 20
48.775109
 11
47.016034
 21
49.647593
 39
0
 62
0
  0
LINE
  8
default
  6
CONTINUOUS
 10
47.016034
 20
49.647593
 11
46.864532
 21
50.506835
 39
0
 62
0
  0
LINE
  8
default
  6
CONTINUOUS
 10
46.864532
 20
50.506835
 11
46.566116
 21
51.326712
 39
0
 62
0
  0
LINE
  8
default
  6
CONTINUOUS
 10
46.566116
 20
51.326712
 11
46.129872
 21
52.082308
 39
0
 62
0
  0
LINE
  8
default
  6
CONTINUOUS
 10
46.129872
 20
52.082308
 11
45.569045
 21
52.750670
 39
0
 62
0
  0
LINE
  8
default
  6
CONTINUOUS
 10
45.569045
 20
52.750670
 11
44.900679
 21
53.311497
 39
0
 62
0
  0
LINE
  8
default
  6
CONTINUOUS
 10
44.900679
 20
53.311497
 11
44.145083
 21
53.747741
 39
0
 62
0
  0
LINE
  8
default
  6
CONTINUOUS
 10
44.145083
 20
53.747741
 11
43.325210
 21
54.046148
 39
0
 62
0
  0
LINE
  8
default
  6
CONTINUOUS
 10
43.325210
 20
54.046148
 11
42.465976
 21
54.197655
 39
0
 62
0
  0
LINE
  8
default
  6
CONTINUOUS
 10
42.465976
 20
54.197655
 11
41.593488
 21
54.197659
 39
0
 62
0
  0
LINE
  8
default
  6
CONTINUOUS
 10
41.593488
 20
54.197659
 11
40.734254
 21
54.046148
 39
0
 62
0
  0
LINE
  8
default
  6
CONTINUOUS
 10
40.734254
 20
54.046148
 11
39.914381
 21
53.747741
 39
0
 62
0
  0
LINE
  8
default
  6
CONTINUOUS
 10
39.914381
 20
53.747741
 11
39.158781
 21
53.311492
 39
0
 62
0
  0
LINE
  8
default
  6
CONTINUOUS
 10
39.158781
 20
53.311492
 11
38.490415
 21
52.750670
 39
0
 62
0
  0
LINE
  8
default
  6
CONTINUOUS
 10
38.490415
 20
52.750670
 11
37.929588
 21
52.082304
 39
0
 62
0
  0
LINE
  8
default
  6
CONTINUOUS
 10
37.929588
 20
52.082304
 11
37.493349
 21
51.326708
 39
0
 62
0
  0
LINE
  8
default
  6
CONTINUOUS
 10
37.493349
 20
51.326708
 11
37.194933
 21
50.506835
 39
0
 62
0
  0
LINE
  8
default
  6
CONTINUOUS
 10
37.194933
 20
50.506835
 11
37.043430
 21
49.647597
 39
0
 62
0
  0
LINE
  8
default
  6
CONTINUOUS
 10
37.043430
 20
49.647597
 11
37.043426
 21
48.775104
 39
0
 62
0
  0
LINE
  8
default
  6
CONTINUOUS
 10
37.043426
 20
48.775104
 11
37.194941
 21
47.915875
 39
0
 62
0
  0
LINE
  8
default
  6
CONTINUOUS
 10
37.194941
 20
47.915875
 11
37.493344
 21
47.096002
 39
0
 62
0
  0
LINE
  8
default
  6
CONTINUOUS
 10
37.493344
 20
47.096002
 11
37.845145
 21
46.464954
 39
0
 62
0
  0
LINE
  8
default
  6
CONTINUOUS
 10
0.000001
 20
19.454655
 11
0.855796
 21
19.284791
 39
0
 62
0
  0
LINE
  8
default
  6
CONTINUOUS
 10
0.855796
 20
19.284791
 11
1.728085
 21
19.266117
 39
0
 62
0
  0
LINE
  8
default
  6
CONTINUOUS
 10
1.728085
 20
19.266117
 11
2.590366
 21
19.399199
 39
0
 62
0
  0
LINE
  8
default
  6
CONTINUOUS
 10
2.590366
 20
19.399199
 11
3.416437
 21
19.679990
 39
0
 62
0
  0
LINE
  8
default
  6
CONTINUOUS
 10
3.416437
 20
19.679990
 11
4.181199
 21
20.099964
 39
0
 62
0
  0
LINE
  8
default
  6
CONTINUOUS
 10
4.181199
 20
20.099964
 11
4.861416
 21
20.646355
 39
0
 62
0
  0
LINE
  8
default
  6
CONTINUOUS
 10
4.861416
 20
20.646355
 11
5.436419
 21
21.302565
 39
0
 62
0
  0
LINE
  8
default
  6
CONTINUOUS
 10
5.436419
 20
21.302565
 11
5.888736
 21
22.048653
 39
0
 62
0
  0
LINE
  8
default
  6
CONTINUOUS
 10
5.888736
 20
22.048653
 11
6.204624
 21
22.861949
 39
0
 62
0
  0
LINE
  8
default
  6
CONTINUOUS
 10
6.204624
 20
22.861949
 11
6.374486
 21
23.717744
 39
0
 62
0
  0
LINE
  8
default
  6
CONTINUOUS
 10
6.374486
 20
23.717744
 11
6.393161
 21
24.590031
 39
0
 62
0
  0
LINE
  8
default
  6
CONTINUOUS
 10
6.393161
 20
24.590031
 11
6.260080
 21
25.452314
 39
0
 62
0
  0
LINE
  8
default
  6
CONTINUOUS
 10
6.260080
 20
25.452314
 11
5.979288
 21
26.278385
 39
0
 62
0
  0
LINE
  8
default
  6
CONTINUOUS
 10
5.979288
 20
26.278385
 11
5.559315
 21
27.043148
 39
0
 62
0
  0
LINE
  8
default
  6
CONTINUOUS
 10
5.559315
 20
27.043148
 11
5.012924
 21
27.723364
 39
0
 62
0
  0
LINE
  8
default
  6
CONTINUOUS
 10
5.012924
 20
27.723364
 11
4.356714
 21
28.298366
 39
0
 62
0
  0
LINE
  8
default
  6
CONTINUOUS
 10
4.356714
 20
28.298366
 11
3.610626
 21
28.750684
 39
0
 62
0
  0
LINE
  8
default
  6
CONTINUOUS
 10
3.610626
 20
28.750684
 11
2.797329
 21
29.066569
 39
0
 62
0
  0
LINE
  8
default
  6
CONTINUOUS
 10
2.797329
 20
29.066569
 11
1.941534
 21
29.236437
 39
0
 62
0
  0
LINE
  8
default
  6
CONTINUOUS
 10
1.941534
 20
29.236437
 11
1.069245
 21
29.255109
 39
0
 62
0
  0
LINE
  8
default
  6
CONTINUOUS
 10
1.069245
 20
29.255109
 11
0.206964
 21
29.122025
 39
0
 62
0
  0
LINE
  8
default
  6
CONTINUOUS
 10
0.206964
 20
29.122025
 11
0.000003
 21
29.066571
 39
0
 62
0
  0
LINE
  8
default
  6
CONTINUOUS
 10
99.027430
 20
19.852586
 11
99.828895
 21
19.507788
 39
0
 62
0
  0
LINE
  8
default
  6
CONTINUOUS
 10
99.828895
 20
19.507788
 11
100.000000
 21
19.454655
 39
0
 62
0
  0
LINE
  8
default
  6
CONTINUOUS
 10
100.000000
 20
29.066569
 11
99.686737
 21
28.964103
 39
0
 62
0
  0
LINE
  8
default
  6
CONTINUOUS
 10
8.133437
 20
100.000000
 11
8.653941
 21
98.426993
 39
0
 62
0
  0
LINE
  8
default
  6
CONTINUOUS
 10
8.653941
 20
98.426993
 11
9.439688
 21
96.968268
 39
0
 62
0
  0
LINE
  8
default
  6
CONTINUOUS
 10
9.439688
 20
96.968268
 11
10.466800
 21
95.668140
 39
0
 62
0
  0
LINE
  8
default
  6
CONTINUOUS
 10
10.466800
 20
95.668140
 11
11.704077
 21
94.566119
 39
0
 62
0
  0
LINE
  8
default
  6
CONTINUOUS
 10
11.704077
 20
94.566119
 11
13.113917
 21
93.695705
 39
0
 62
0
  0
LINE
  8
default
  6
CONTINUOUS
 10
13.113917
 20
93.695705
 11
14.653488
 21
93.083317
 39
0
 62
0
  0
LINE
  8
default
  6
CONTINUOUS
 10
14.653488
 20
93.083317
 11
16.276009
 21
92.747583
 39
0
 62
0
  0
LINE
  8
default
  6
CONTINUOUS
 10
16.276009
 20
92.747583
 11
17.932178
 21
92.698695
 39
0
 62
0
  0
LINE
  8
default
  6
CONTINUOUS
 10
17.932178
 20
92.698695
 11
19.571676
 21
92.938140
 39
0
 62
0
  0
LINE
  8
default
  6
CONTINUOUS
 10
19.571676
 20
92.938140
 11
21.144687
 21
93.458639
 39
0
 62
0
  0
LINE
  8
default
  6
CONTINUOUS
 10
21.144687
 20
93.458639
 11
22.603416
 21
94.244392
 39
0
 62
0
  0
LINE
  8
default
  6
CONTINUOUS
 10
22.603416
 20
94.244392
 11
23.903542
 21
95.271506
 39
0
 62
0
  0
LINE
  8
default
  6
CONTINUOUS
 10
23.903542
 20
95.271506
 11
25.005556
 21
96.508783
 39
0
 62
0
  0
LINE
  8
default
  6
CONTINUOUS
 10
25.005556
 20
96.508783
 11
25.875977
 21
97.918620
 39
0
 62
0
  0
LINE
  8
default
  6
CONTINUOUS
 10
25.875977
 20
97.918620
 11
26.488360
 21
99.458193
 39
0
 62
0
  0
LINE
  8
default
  6
CONTINUOUS
 10
26.488360
 20
99.458193
 11
26.633542
 21
100.000000
 39
0
 62
0
  0
LINE
  8
default
  6
CONTINUOUS
 10
10.728661
 20
100.000000
 11
11.209738
 21
98.877651
 39
0
 62
0
  0
LINE
  8
default
  6
CONTINUOUS
 10
11.209738
 20
98.877651
 11
11.878398
 21
97.855882
 39
0
 62
0
  0
LINE
  8
default
  6
CONTINUOUS
 10
11.878398
 20
97.855882
 11
12.714332
 21
96.965748
 39
0
 62
0
  0
LINE
  8
default
  6
CONTINUOUS
 10
12.714332
 20
96.965748
 11
13.692133
 21
96.234308
 39
0
 62
0
  0
LINE
  8
default
  6
CONTINUOUS
 10
13.692133
 20
96.234308
 11
14.782096
 21
95.683765
 39
0
 62
0
  0
LINE
  8
default
  6
CONTINUOUS
 10
14.782096
 20
95.683765
 11
15.951100
 21
95.330849
 39
0
 62
0
  0
LINE
  8
default
  6
CONTINUOUS
 10
15.951100
 20
95.330849
 11
17.163627
 21
95.186293
 39
0
 62
0
  0
LINE
  8
default
  6
CONTINUOUS
 10
17.163627
 20
95.186293
 11
18.382833
 21
95.254490
 39
0
 62
0
  0
LINE
  8
default
  6
CONTINUOUS
 10
18.382833
 20
95.254490
 11
19.571676
 21
95.533365
 39
0
 62
0
  0
LINE
  8
default
  6
CONTINUOUS
 10
19.571676
 20
95.533365
 11
20.694031
 21
96.014442
 39
0
 62
0
  0
LINE
  8
default
  6
CONTINUOUS
 10
20.694031
 20
96.014442
 11
21.715797
 21
96.683102
 39
0
 62
0
  0
LINE
  8
default
  6
CONTINUOUS
 10
21.715797
 20
96.683102
 11
22.605925
 21
97.519038
 39
0
 62
0
  0
LINE
  8
default
  6
CONTINUOUS
 10
22.605925
 20
97.519038
 11
23.337379
 21
98.496834
 39
0
 62
0
  0
LINE
  8
default
  6
CONTINUOUS
 10
23.337379
 20
98.496834
 11
23.887921
 21
99.586799
 39
0
 62
0
  0
LINE
  8
default
  6
CONTINUOUS
 10
23.887921
 20
99.586799
 11
24.038317
 21
100.000000
 39
0
 62
0
  0
LINE
  8
default
  6
CONTINUOUS
 10
0.610357
 20
100.000000
 11
0.806093
 21
99.610657
 39
0
 62
0
  0
LINE
  8
default
  6
CONTINUOUS
 10
0.806093
 20
99.610657
 11
1.066466
 21
99.261214
 39
0
 62
0
  0
LINE
  8
default
  6
CONTINUOUS
 10
1.066466
 20
99.261214
 11
1.383562
 21
98.962295
 39
0
 62
0
  0
LINE
  8
default
  6
CONTINUOUS
 10
1.383562
 20
98.962295
 11
1.747748
 21
98.722973
 39
0
 62
0
  0
LINE
  8
default
  6
CONTINUOUS
 10
1.747748
 20
98.722973
 11
2.147958
 21
98.550543
 39
0
 62
0
  0
LINE
  8
default
  6
CONTINUOUS
 10
2.147958
 20
98.550543
 11
2.572031
 21
98.450221
 39
0
 62
0
  0
LINE
  8
default
  6
CONTINUOUS
 10
2.572031
 20
98.450221
 11
3.007083
 21
98.425060
 39
0
 62
0
  0
LINE
  8
default
  6
CONTINUOUS
 10
3.007083
 20
98.425060
 11
3.439894
 21
98.475820
 39
0
 62
0
  0
LINE
  8
default
  6
CONTINUOUS
 10
3.439894
 20
98.475820
 11
3.857314
 21
98.600980
 39
0
 62
0
  0
LINE
  8
default
  6
CONTINUOUS
 10
3.857314
 20
98.600980
 11
4.246660
 21
98.796716
 39
0
 62
0
  0
LINE
  8
default
  6
CONTINUOUS
 10
4.246660
 20
98.796716
 11
4.596102
 21
99.057088
 39
0
 62
0
  0
LINE
  8
default
  6
CONTINUOUS
 10
4.596102
 20
99.057088
 11
4.895022
 21
99.374187
 39
0
 62
0
  0
LINE
  8
default
  6
CONTINUOUS
 10
4.895022
 20
99.374187
 11
5.134336
 21
99.738372
 39
0
 62
0
  0
LINE
  8
default
  6
CONTINUOUS
 10
5.134336
 20
99.738372
 11
5.256338
 21
100.000000
 39
0
 62
0
  0
LINE
  8
default
  6
CONTINUOUS
 10
5.579245
 20
100.000000
 11
6.138552
 21
97.983457
 39
0
 62
0
  0
LINE
  8
default
  6
CONTINUOUS
 10
6.138552
 20
97.983457
 11
7.039532
 21
96.094677
 39
0
 62
0
  0
LINE
  8
default
  6
CONTINUOUS
 10
7.039532
 20
96.094677
 11
8.254808
 21
94.391048
 39
0
 62
0
  0
LINE
  8
default
  6
CONTINUOUS
 10
8.254808
 20
94.391048
 11
9.747454
 21
92.924326
 39
0
 62
0
  0
LINE
  8
default
  6
CONTINUOUS
 10
9.747454
 20
92.924326
 11
11.472116
 21
91.739078
 39
0
 62
0
  0
LINE
  8
default
  6
CONTINUOUS
 10
11.472116
 20
91.739078
 11
13.376393
 21
90.871323
 39
0
 62
0
  0
LINE
  8
default
  6
CONTINUOUS
 10
13.376393
 20
90.871323
 11
15.402424
 21
90.347430
 39
0
 62
0
  0
LINE
  8
default
  6
CONTINUOUS
 10
15.402424
 20
90.347430
 11
17.488647
 21
90.183303
 39
0
 62
0
  0
LINE
  8
default
  6
CONTINUOUS
 10
17.488647
 20
90.183303
 11
19.571676
 21
90.383947
 39
0
 62
0
  0
LINE
  8
default
  6
CONTINUOUS
 10
19.571676
 20
90.383947
 11
21.588218
 21
90.943256
 39
0
 62
0
  0
LINE
  8
default
  6
CONTINUOUS
 10
21.588218
 20
90.943256
 11
23.477000
 21
91.844230
 39
0
 62
0
  0
LINE
  8
default
  6
CONTINUOUS
 10
23.477000
 20
91.844230
 11
25.180634
 21
93.059512
 39
0
 62
0
  0
LINE
  8
default
  6
CONTINUOUS
 10
25.180634
 20
93.059512
 11
26.647360
 21
94.552156
 39
0
 62
0
  0
LINE
  8
default
  6
CONTINUOUS
 10
26.647360
 20
94.552156
 11
27.832606
 21
96.276818
 39
0
 62
0
  0
LINE
  8
default
  6
CONTINUOUS
 10
27.832606
 20
96.276818
 11
28.700359
 21
98.181100
 39
0
 62
0
  0
LINE
  8
default
  6
CONTINUOUS
 10
28.700359
 20
98.181100
 11
29.187735
 21
100.000000
 39
0
 62
0
  0
LINE
  8
default
  6
CONTINUOUS
 10
98.330232
 20
44.464089
 11
100.000000
 21
44.596196
 39
0
 62
0
  0
LINE
  8
default
  6
CONTINUOUS
 10
98.330223
 20
44.464080
 11
100.000000
 21
43.619610
 39
0
 62
0
  0
LINE
  8
default
  6
CONTINUOUS
 10
100.000000
 20
51.727087
 11
99.596064
 21
51.890588
 39
0
 62
0
  0
LINE
  8
default
  6
CONTINUOUS
 10
99.596064
 20
51.890588
 11
99.169859
 21
51.981461
 39
0
 62
0
  0
LINE
  8
default
  6
CONTINUOUS
 10
99.169859
 20
51.981461
 11
98.734363
 21
51.996942
 39
0
 62
0
  0
LINE
  8
default
  6
CONTINUOUS
 10
98.734363
 20
51.996942
 11
98.302778
 21
51.936567
 39
0
 62
0
  0
LINE
  8
default
  6
CONTINUOUS
 10
98.302778
 20
51.936567
 11
97.888244
 21
51.802168
 39
0
 62
0
  0
LINE
  8
default
  6
CONTINUOUS
 10
97.888244
 20
51.802168
 11
97.503351
 21
51.597828
 39
0
 62
0
  0
LINE
  8
default
  6
CONTINUOUS
 10
97.503351
 20
51.597828
 11
97.159778
 21
51.329753
 39
0
 62
0
  0
LINE
  8
default
  6
CONTINUOUS
 10
97.159778
 20
51.329753
 11
96.867981
 21
51.006092
 39
0
 62
0
  0
LINE
  8
default
  6
CONTINUOUS
 10
96.867981
 20
51.006092
 11
96.636821
 21
50.636675
 39
0
 62
0
  0
LINE
  8
default
  6
CONTINUOUS
 10
96.636821
 20
50.636675
 11
96.473324
 21
50.232736
 39
0
 62
0
  0
LINE
  8
default
  6
CONTINUOUS
 10
96.473324
 20
50.232736
 11
96.382442
 21
49.806531
 39
0
 62
0
  0
LINE
  8
default
  6
CONTINUOUS
 10
96.382442
 20
49.806531
 11
96.366956
 21
49.371031
 39
0
 62
0
  0
LINE
  8
default
  6
CONTINUOUS
 10
96.366956
 20
49.371031
 11
96.427340
 21
48.939454
 39
0
 62
0
  0
LINE
  8
default
  6
CONTINUOUS
 10
96.427340
 20
48.939454
 11
96.561739
 21
48.524920
 39
0
 62
0
  0
LINE
  8
default
  6
CONTINUOUS
 10
96.561739
 20
48.524920
 11
96.766084
 21
48.140023
 39
0
 62
0
  0
LINE
  8
default
  6
CONTINUOUS
 10
96.766084
 20
48.140023
 11
97.034155
 21
47.796450
 39
0
 62
0
  0
LINE
  8
default
  6
CONTINUOUS
 10
97.034155
 20
47.796450
 11
97.357815
 21
47.504653
 39
0
 62
0
  0
LINE
  8
default
  6
CONTINUOUS
 10
97.357815
 20
47.504653
 11
97.727223
 21
47.273493
 39
0
 62
0
  0
LINE
  8
default
  6
CONTINUOUS
 10
97.727223
 20
47.273493
 11
98.131171
 21
47.109987
 39
0
 62
0
  0
LINE
  8
default
  6
CONTINUOUS
 10
98.131171
 20
47.109987
 11
98.557376
 21
47.019118
 39
0
 62
0
  0
LINE
  8
default
  6
CONTINUOUS
 10
98.557376
 20
47.019118
 11
98.992872
 21
47.003633
 39
0
 62
0
  0
LINE
  8
default
  6
CONTINUOUS
 10
98.992872
 20
47.003633
 11
99.424457
 21
47.064008
 39
0
 62
0
  0
LINE
  8
default
  6
CONTINUOUS
 10
99.424457
 20
47.064008
 11
99.838991
 21
47.198411
 39
0
 62
0
  0
LINE
  8
default
  6
CONTINUOUS
 10
99.838991
 20
47.198411
 11
100.000000
 21
47.273488
 39
0
 62
0
  0
LINE
  8
default
  6
CONTINUOUS
 10
87.882299
 20
51.414248
 11
89.605071
 21
49.811243
 39
0
 62
0
  0
LINE
  8
default
  6
CONTINUOUS
 10
89.605071
 20
49.811243
 11
91.580035
 21
48.531740
 39
0
 62
0
  0
LINE
  8
default
  6
CONTINUOUS
 10
91.580035
 20
48.531740
 11
93.747165
 21
47.614633
 39
0
 62
0
  0
LINE
  8
default
  6
CONTINUOUS
 10
93.747165
 20
47.614633
 11
96.040636
 21
47.087774
 39
0
 62
0
  0
LINE
  8
default
  6
CONTINUOUS
 10
96.040636
 20
47.087774
 11
98.390747
 21
46.967172
 39
0
 62
0
  0
LINE
  8
default
  6
CONTINUOUS
 10
98.390747
 20
46.967172
 11
100.000000
 21
47.121999
 39
0
 62
0
  0
LINE
  8
default
  6
CONTINUOUS
 10
87.882290
 20
51.414244
 11
90.313213
 21
47.925254
 39
0
 62
0
  0
LINE
  8
default
  6
CONTINUOUS
 10
90.313213
 20
47.925254
 11
93.313069
 21
44.911392
 39
0
 62
0
  0
LINE
  8
default
  6
CONTINUOUS
 10
93.313069
 20
44.911392
 11
96.790694
 21
42.464231
 39
0
 62
0
  0
LINE
  8
default
  6
CONTINUOUS
 10
96.790694
 20
42.464231
 11
100.000000
 21
40.903193
 39
0
 62
0
  0
LINE
  8
default
  6
CONTINUOUS
 10
7.914316
 20
1.359743
 11
8.133440
 21
0.000000
 39
0
 62
0
  0
LINE
  8
default
  6
CONTINUOUS
 10
10.404801
 20
1.577632
 11
10.616845
 21
0.375071
 39
0
 62
0
  0
LINE
  8
default
  6
CONTINUOUS
 10
10.616845
 20
0.375071
 11
10.728664
 21
0.000000
 39
0
 62
0
  0
LINE
  8
default
  6
CONTINUOUS
 10
5.423829
 20
1.141853
 11
5.579247
 21
0.000001
 39
0
 62
0
  0
LINE
  8
default
  6
CONTINUOUS
 10
29.187737
 20
0.000001
 11
29.388377
 21
2.083030
 39
0
 62
0
  0
LINE
  8
default
  6
CONTINUOUS
 10
29.388377
 20
2.083030
 11
29.224259
 21
4.169255
 39
0
 62
0
  0
LINE
  8
default
  6
CONTINUOUS
 10
29.224259
 20
4.169255
 11
28.700361
 21
6.195285
 39
0
 62
0
  0
LINE
  8
default
  6
CONTINUOUS
 10
28.700361
 20
6.195285
 11
27.832606
 21
8.099562
 39
0
 62
0
  0
LINE
  8
default
  6
CONTINUOUS
 10
27.832606
 20
8.099562
 11
27.554819
 21
8.565685
 39
0
 62
0
  0
LINE
  8
default
  6
CONTINUOUS
 10
0.000001
 20
47.273488
 11
0.369416
 21
47.504644
 39
0
 62
0
  0
LINE
  8
default
  6
CONTINUOUS
 10
0.369416
 20
47.504644
 11
0.693078
 21
47.796450
 39
0
 62
0
  0
LINE
  8
default
  6
CONTINUOUS
 10
0.693078
 20
47.796450
 11
0.961153
 21
48.140018
 39
0
 62
0
  0
LINE
  8
default
  6
CONTINUOUS
 10
0.961153
 20
48.140018
 11
1.165495
 21
48.524916
 39
0
 62
0
  0
LINE
  8
default
  6
CONTINUOUS
 10
1.165495
 20
48.524916
 11
1.299896
 21
48.939454
 39
0
 62
0
  0
LINE
  8
default
  6
CONTINUOUS
 10
1.299896
 20
48.939454
 11
1.360272
 21
49.371027
 39
0
 62
0
  0
LINE
  8
default
  6
CONTINUOUS
 10
1.360272
 20
49.371027
 11
1.344788
 21
49.806531
 39
0
 62
0
  0
LINE
  8
default
  6
CONTINUOUS
 10
1.344788
 20
49.806531
 11
1.253916
 21
50.232732
 39
0
 62
0
  0
LINE
  8
default
  6
CONTINUOUS
 10
1.253916
 20
50.232732
 11
1.090415
 21
50.636667
 39
0
 62
0
  0
LINE
  8
default
  6
CONTINUOUS
 10
1.090415
 20
50.636667
 11
0.859254
 21
51.006088
 39
0
 62
0
  0
LINE
  8
default
  6
CONTINUOUS
 10
0.859254
 20
51.006088
 11
0.567456
 21
51.329744
 39
0
 62
0
  0
LINE
  8
default
  6
CONTINUOUS
 10
0.567456
 20
51.329744
 11
0.223888
 21
51.597828
 39
0
 62
0
  0
LINE
  8
default
  6
CONTINUOUS
 10
0.223888
 20
51.597828
 11
-0.000002
 21
51.727087
 39
0
 62
0
  0
LINE
  8
default
  6
CONTINUOUS
 10
0.000000
 20
47.121999
 11
2.284019
 21
47.688416
 39
0
 62
0
  0
LINE
  8
default
  6
CONTINUOUS
 10
2.284019
 20
47.688416
 11
4.434980
 21
48.642845
 39
0
 62
0
  0
LINE
  8
default
  6
CONTINUOUS
 10
4.434980
 20
48.642845
 11
6.387529
 21
49.956288
 39
0
 62
0
  0
LINE
  8
default
  6
CONTINUOUS
 10
6.387529
 20
49.956288
 11
8.082337
 21
51.588834
 39
0
 62
0
  0
LINE
  8
default
  6
CONTINUOUS
 10
8.082337
 20
51.588834
 11
9.467909
 21
53.490873
 39
0
 62
0
  0
LINE
  8
default
  6
CONTINUOUS
 10
9.467909
 20
53.490873
 11
10.502143
 21
55.604622
 39
0
 62
0
  0
LINE
  8
default
  6
CONTINUOUS
 10
10.502143
 20
55.604622
 11
11.153620
 21
57.865850
 39
0
 62
0
  0
LINE
  8
default
  6
CONTINUOUS
 10
11.153620
 20
57.865850
 11
11.225749
 21
58.266382
 39
0
 62
0
  0
LINE
  8
default
  6
CONTINUOUS
 10
71.788696
 20
100.000000
 11
70.554893
 21
98.894098
 39
0
 62
0
  0
LINE
  8
default
  6
CONTINUOUS
 10
70.554893
 20
98.894098
 11
69.531882
 21
97.590734
 39
0
 62
0
  0
LINE
  8
default
  6
CONTINUOUS
 10
69.531882
 20
97.590734
 11
68.750731
 21
96.129541
 39
0
 62
0
  0
LINE
  8
default
  6
CONTINUOUS
 10
68.750731
 20
96.129541
 11
68.235193
 21
94.554903
 39
0
 62
0
  0
LINE
  8
default
  6
CONTINUOUS
 10
68.235193
 20
94.554903
 11
68.000910
 21
92.914659
 39
0
 62
0
  0
LINE
  8
default
  6
CONTINUOUS
 10
68.000910
 20
92.914659
 11
68.055016
 21
91.258640
 39
0
 62
0
  0
LINE
  8
default
  6
CONTINUOUS
 10
68.055016
 20
91.258640
 11
68.395864
 21
89.637188
 39
0
 62
0
  0
LINE
  8
default
  6
CONTINUOUS
 10
68.395864
 20
89.637188
 11
69.013094
 21
88.099566
 39
0
 62
0
  0
LINE
  8
default
  6
CONTINUOUS
 10
69.013094
 20
88.099566
 11
69.887953
 21
86.692467
 39
0
 62
0
  0
LINE
  8
default
  6
CONTINUOUS
 10
69.887953
 20
86.692467
 11
70.993866
 21
85.458672
 39
0
 62
0
  0
LINE
  8
default
  6
CONTINUOUS
 10
70.993866
 20
85.458672
 11
72.297218
 21
84.435653
 39
0
 62
0
  0
LINE
  8
default
  6
CONTINUOUS
 10
72.297218
 20
84.435653
 11
73.758415
 21
83.654511
 39
0
 62
0
  0
LINE
  8
default
  6
CONTINUOUS
 10
73.758415
 20
83.654511
 11
75.333061
 21
83.138963
 39
0
 62
0
  0
LINE
  8
default
  6
CONTINUOUS
 10
75.333061
 20
83.138963
 11
76.973306
 21
82.904689
 39
0
 62
0
  0
LINE
  8
default
  6
CONTINUOUS
 10
76.973306
 20
82.904689
 11
78.629307
 21
82.958791
 39
0
 62
0
  0
LINE
  8
default
  6
CONTINUOUS
 10
78.629307
 20
82.958791
 11
80.250760
 21
83.299635
 39
0
 62
0
  0
LINE
  8
default
  6
CONTINUOUS
 10
80.250760
 20
83.299635
 11
81.087317
 21
83.596664
 39
0
 62
0
  0
LINE
  8
default
  6
CONTINUOUS
 10
91.014138
 20
64.892066
 11
93.430258
 21
67.846481
 39
0
 62
0
  0
LINE
  8
default
  6
CONTINUOUS
 10
93.430258
 20
67.846481
 11
95.296650
 21
71.175565
 39
0
 62
0
  0
LINE
  8
default
  6
CONTINUOUS
 10
95.296650
 20
71.175565
 11
96.556603
 21
74.778171
 39
0
 62
0
  0
LINE
  8
default
  6
CONTINUOUS
 10
96.556603
 20
74.778171
 11
97.171825
 21
78.544821
 39
0
 62
0
  0
LINE
  8
default
  6
CONTINUOUS
 10
97.171825
 20
78.544821
 11
97.123628
 21
82.361093
 39
0
 62
0
  0
LINE
  8
default
  6
CONTINUOUS
 10
97.123628
 20
82.361093
 11
96.413465
 21
86.111006
 39
0
 62
0
  0
LINE
  8
default
  6
CONTINUOUS
 10
96.413465
 20
86.111006
 11
95.062935
 21
89.680643
 39
0
 62
0
  0
LINE
  8
default
  6
CONTINUOUS
 10
95.062935
 20
89.680643
 11
93.113063
 21
92.961526
 39
0
 62
0
  0
LINE
  8
default
  6
CONTINUOUS
 10
93.113063
 20
92.961526
 11
90.623095
 21
95.853973
 39
0
 62
0
  0
LINE
  8
default
  6
CONTINUOUS
 10
90.623095
 20
95.853973
 11
87.668680
 21
98.270093
 39
0
 62
0
  0
LINE
  8
default
  6
CONTINUOUS
 10
87.668680
 20
98.270093
 11
84.636280
 21
100.000000
 39
0
 62
0
  0
LINE
  8
default
  6
CONTINUOUS
 10
89.559682
 20
100.000000
 11
89.926063
 21
99.764049
 39
0
 62
0
  0
LINE
  8
default
  6
CONTINUOUS
 10
89.926063
 20
99.764049
 11
90.327841
 21
99.595312
 39
0
 62
0
  0
LINE
  8
default
  6
CONTINUOUS
 10
90.327841
 20
99.595312
 11
90.752821
 21
99.498901
 39
0
 62
0
  0
LINE
  8
default
  6
CONTINUOUS
 10
90.752821
 20
99.498901
 11
91.188090
 21
99.477755
 39
0
 62
0
  0
LINE
  8
default
  6
CONTINUOUS
 10
91.188090
 20
99.477755
 11
91.620410
 21
99.532505
 39
0
 62
0
  0
LINE
  8
default
  6
CONTINUOUS
 10
91.620410
 20
99.532505
 11
92.036668
 21
99.661496
 39
0
 62
0
  0
LINE
  8
default
  6
CONTINUOUS
 10
92.036668
 20
99.661496
 11
92.424194
 21
99.860819
 39
0
 62
0
  0
LINE
  8
default
  6
CONTINUOUS
 10
92.424194
 20
99.860819
 11
92.622966
 21
100.000000
 39
0
 62
0
  0
LINE
  8
default
  6
CONTINUOUS
 10
100.000000
 20
82.490855
 11
99.830129
 21
82.089549
 39
0
 62
0
  0
LINE
  8
default
  6
CONTINUOUS
 10
99.830129
 20
82.089549
 11
99.732519
 21
81.664840
 39
0
 62
0
  0
LINE
  8
default
  6
CONTINUOUS
 10
99.732519
 20
81.664840
 11
99.710139
 21
81.229633
 39
0
 62
0
  0
LINE
  8
default
  6
CONTINUOUS
 10
99.710139
 20
81.229633
 11
99.763682
 21
80.797155
 39
0
 62
0
  0
LINE
  8
default
  6
CONTINUOUS
 10
99.763682
 20
80.797155
 11
99.891501
 21
80.380548
 39
0
 62
0
  0
LINE
  8
default
  6
CONTINUOUS
 10
99.891501
 20
80.380548
 11
100.000000
 21
80.147857
 39
0
 62
0
  0
LINE
  8
default
  6
CONTINUOUS
 10
100.000000
 20
71.986479
 11
99.566144
 21
71.945610
 39
0
 62
0
  0
LINE
  8
default
  6
CONTINUOUS
 10
99.566144
 20
71.945610
 11
99.145975
 21
71.830025
 39
0
 62
0
  0
LINE
  8
default
  6
CONTINUOUS
 10
99.145975
 20
71.830025
 11
98.752255
 21
71.643235
 39
0
 62
0
  0
LINE
  8
default
  6
CONTINUOUS
 10
98.752255
 20
71.643235
 11
98.396959
 21
71.390916
 39
0
 62
0
  0
LINE
  8
default
  6
CONTINUOUS
 10
98.396959
 20
71.390916
 11
98.090874
 21
71.080733
 39
0
 62
0
  0
LINE
  8
default
  6
CONTINUOUS
 10
98.090874
 20
71.080733
 11
97.843302
 21
70.722108
 39
0
 62
0
  0
LINE
  8
default
  6
CONTINUOUS
 10
97.843302
 20
70.722108
 11
97.661756
 21
70.325942
 39
0
 62
0
  0
LINE
  8
default
  6
CONTINUOUS
 10
97.661756
 20
70.325942
 11
97.551775
 21
69.904273
 39
0
 62
0
  0
LINE
  8
default
  6
CONTINUOUS
 10
97.551775
 20
69.904273
 11
97.516675
 21
69.469910
 39
0
 62
0
  0
LINE
  8
default
  6
CONTINUOUS
 10
97.516675
 20
69.469910
 11
97.557550
 21
69.036055
 39
0
 62
0
  0
LINE
  8
default
  6
CONTINUOUS
 10
97.557550
 20
69.036055
 11
97.673130
 21
68.615882
 39
0
 62
0
  0
LINE
  8
default
  6
CONTINUOUS
 10
97.673130
 20
68.615882
 11
97.859924
 21
68.222166
 39
0
 62
0
  0
LINE
  8
default
  6
CONTINUOUS
 10
97.859924
 20
68.222166
 11
98.112248
 21
67.866865
 39
0
 62
0
  0
LINE
  8
default
  6
CONTINUOUS
 10
98.112248
 20
67.866865
 11
98.422426
 21
67.560781
 39
0
 62
0
  0
LINE
  8
default
  6
CONTINUOUS
 10
98.422426
 20
67.560781
 11
98.781047
 21
67.313208
 39
0
 62
0
  0
LINE
  8
default
  6
CONTINUOUS
 10
98.781047
 20
67.313208
 11
99.177217
 21
67.131667
 39
0
 62
0
  0
LINE
  8
default
  6
CONTINUOUS
 10
99.177217
 20
67.131667
 11
99.598881
 21
67.021682
 39
0
 62
0
  0
LINE
  8
default
  6
CONTINUOUS
 10
99.598881
 20
67.021682
 11
100.000000
 21
66.986586
 39
0
 62
0
  0
LINE
  8
default
  6
CONTINUOUS
 10
68.202017
 20
100.000000
 11
67.022710
 21
98.271274
 39
0
 62
0
  0
LINE
  8
default
  6
CONTINUOUS
 10
67.022710
 20
98.271274
 11
66.161508
 21
96.364017
 39
0
 62
0
  0
LINE
  8
default
  6
CONTINUOUS
 10
66.161508
 20
96.364017
 11
65.644583
 21
94.336202
 39
0
 62
0
  0
LINE
  8
default
  6
CONTINUOUS
 10
65.644583
 20
94.336202
 11
65.487634
 21
92.249429
 39
0
 62
0
  0
LINE
  8
default
  6
CONTINUOUS
 10
65.487634
 20
92.249429
 11
65.695444
 21
90.167100
 39
0
 62
0
  0
LINE
  8
default
  6
CONTINUOUS
 10
65.695444
 20
90.167100
 11
66.261681
 21
88.152496
 39
0
 62
0
  0
LINE
  8
default
  6
CONTINUOUS
 10
66.261681
 20
88.152496
 11
67.169143
 21
86.266813
 39
0
 62
0
  0
LINE
  8
default
  6
CONTINUOUS
 10
67.169143
 20
86.266813
 11
68.390273
 21
84.567374
 39
0
 62
0
  0
LINE
  8
default
  6
CONTINUOUS
 10
68.390273
 20
84.567374
 11
69.887953
 21
83.105788
 39
0
 62
0
  0
LINE
  8
default
  6
CONTINUOUS
 10
69.887953
 20
83.105788
 11
71.616682
 21
81.926481
 39
0
 62
0
  0
LINE
  8
default
  6
CONTINUOUS
 10
71.616682
 20
81.926481
 11
73.523931
 21
81.065287
 39
0
 62
0
  0
LINE
  8
default
  6
CONTINUOUS
 10
73.523931
 20
81.065287
 11
75.551746
 21
80.548358
 39
0
 62
0
  0
LINE
  8
default
  6
CONTINUOUS
 10
75.551746
 20
80.548358
 11
77.638527
 21
80.391414
 39
0
 62
0
  0
LINE
  8
default
  6
CONTINUOUS
 10
77.638527
 20
80.391414
 11
79.720856
 21
80.599214
 39
0
 62
0
  0
LINE
  8
default
  6
CONTINUOUS
 10
79.720856
 20
80.599214
 11
81.019733
 21
80.920504
 39
0
 62
0
  0
LINE
  8
default
  6
CONTINUOUS
 10
81.596670
 20
56.598981
 11
85.595949
 21
58.044054
 39
0
 62
0
  0
LINE
  8
default
  6
CONTINUOUS
 10
85.595949
 20
58.044054
 11
89.283527
 21
60.161644
 39
0
 62
0
  0
LINE
  8
default
  6
CONTINUOUS
 10
89.283527
 20
60.161644
 11
92.547377
 21
62.887405
 39
0
 62
0
  0
LINE
  8
default
  6
CONTINUOUS
 10
92.547377
 20
62.887405
 11
95.288321
 21
66.138521
 39
0
 62
0
  0
LINE
  8
default
  6
CONTINUOUS
 10
95.288321
 20
66.138521
 11
97.423064
 21
69.816191
 39
0
 62
0
  0
LINE
  8
default
  6
CONTINUOUS
 10
97.423064
 20
69.816191
 11
98.886767
 21
73.808703
 39
0
 62
0
  0
LINE
  8
default
  6
CONTINUOUS
 10
98.886767
 20
73.808703
 11
99.634926
 21
77.994716
 39
0
 62
0
  0
LINE
  8
default
  6
CONTINUOUS
 10
99.634926
 20
77.994716
 11
99.644839
 21
82.247044
 39
0
 62
0
  0
LINE
  8
default
  6
CONTINUOUS
 10
99.644839
 20
82.247044
 11
98.916180
 21
86.436504
 39
0
 62
0
  0
LINE
  8
default
  6
CONTINUOUS
 10
98.916180
 20
86.436504
 11
97.471103
 21
90.435784
 39
0
 62
0
  0
LINE
  8
default
  6
CONTINUOUS
 10
97.471103
 20
90.435784
 11
95.353517
 21
94.123371
 39
0
 62
0
  0
LINE
  8
default
  6
CONTINUOUS
 10
95.353517
 20
94.123371
 11
92.627752
 21
97.387211
 39
0
 62
0
  0
LINE
  8
default
  6
CONTINUOUS
 10
92.627752
 20
97.387211
 11
89.557005
 21
100.000000
 39
0
 62
0
  0
LINE
  8
default
  6
CONTINUOUS
 10
77.548896
 20
7.114957
 11
77.510909
 21
6.680837
 39
0
 62
0
  0
LINE
  8
default
  6
CONTINUOUS
 10
77.510909
 20
6.680837
 11
77.548896
 21
6.246717
 39
0
 62
0
  0
LINE
  8
default
  6
CONTINUOUS
 10
77.548896
 20
6.246717
 11
77.661685
 21
5.825787
 39
0
 62
0
  0
LINE
  8
default
  6
CONTINUOUS
 10
77.661685
 20
5.825787
 11
77.845847
 21
5.430836
 39
0
 62
0
  0
LINE
  8
default
  6
CONTINUOUS
 10
77.845847
 20
5.430836
 11
78.095799
 21
5.073868
 39
0
 62
0
  0
LINE
  8
default
  6
CONTINUOUS
 10
78.095799
 20
5.073868
 11
78.403948
 21
4.765726
 39
0
 62
0
  0
LINE
  8
default
  6
CONTINUOUS
 10
78.403948
 20
4.765726
 11
78.760898
 21
4.515773
 39
0
 62
0
  0
LINE
  8
default
  6
CONTINUOUS
 10
78.760898
 20
4.515773
 11
79.155861
 21
4.331605
 39
0
 62
0
  0
LINE
  8
default
  6
CONTINUOUS
 10
79.155861
 20
4.331605
 11
79.576790
 21
4.218818
 39
0
 62
0
  0
LINE
  8
default
  6
CONTINUOUS
 10
79.576790
 20
4.218818
 11
80.010912
 21
4.180837
 39
0
 62
0
  0
LINE
  8
default
  6
CONTINUOUS
 10
80.010912
 20
4.180837
 11
80.445026
 21
4.218818
 39
0
 62
0
  0
LINE
  8
default
  6
CONTINUOUS
 10
80.445026
 20
4.218818
 11
80.865964
 21
4.331605
 39
0
 62
0
  0
LINE
  8
default
  6
CONTINUOUS
 10
80.865964
 20
4.331605
 11
81.260910
 21
4.515773
 39
0
 62
0
  0
LINE
  8
default
  6
CONTINUOUS
 10
81.260910
 20
4.515773
 11
81.617886
 21
4.765726
 39
0
 62
0
  0
LINE
  8
default
  6
CONTINUOUS
 10
81.617886
 20
4.765726
 11
81.926026
 21
5.073868
 39
0
 62
0
  0
LINE
  8
default
  6
CONTINUOUS
 10
81.926026
 20
5.073868
 11
82.175978
 21
5.430836
 39
0
 62
0
  0
LINE
  8
default
  6
CONTINUOUS
 10
82.175978
 20
5.430836
 11
82.360148
 21
5.825787
 39
0
 62
0
  0
LINE
  8
default
  6
CONTINUOUS
 10
82.360148
 20
5.825787
 11
82.472929
 21
6.246717
 39
0
 62
0
  0
LINE
  8
default
  6
CONTINUOUS
 10
82.472929
 20
6.246717
 11
82.510907
 21
6.680837
 39
0
 62
0
  0
LINE
  8
default
  6
CONTINUOUS
 10
82.510907
 20
6.680837
 11
82.472929
 21
7.114957
 39
0
 62
0
  0
LINE
  8
default
  6
CONTINUOUS
 10
82.472929
 20
7.114957
 11
82.360148
 21
7.535887
 39
0
 62
0
  0
LINE
  8
default
  6
CONTINUOUS
 10
82.360148
 20
7.535887
 11
82.175978
 21
7.930837
 39
0
 62
0
  0
LINE
  8
default
  6
CONTINUOUS
 10
82.175978
 20
7.930837
 11
81.926026
 21
8.287806
 39
0
 62
0
  0
LINE
  8
default
  6
CONTINUOUS
 10
81.926026
 20
8.287806
 11
81.617886
 21
8.595948
 39
0
 62
0
  0
LINE
  8
default
  6
CONTINUOUS
 10
81.617886
 20
8.595948
 11
81.260910
 21
8.845900
 39
0
 62
0
  0
LINE
  8
default
  6
CONTINUOUS
 10
81.260910
 20
8.845900
 11
80.865964
 21
9.030068
 39
0
 62
0
  0
LINE
  8
default
  6
CONTINUOUS
 10
80.865964
 20
9.030068
 11
80.445026
 21
9.142856
 39
0
 62
0
  0
LINE
  8
default
  6
CONTINUOUS
 10
80.445026
 20
9.142856
 11
80.010912
 21
9.180837
 39
0
 62
0
  0
LINE
  8
default
  6
CONTINUOUS
 10
80.010912
 20
9.180837
 11
79.576790
 21
9.142856
 39
0
 62
0
  0
LINE
  8
default
  6
CONTINUOUS
 10
79.576790
 20
9.142856
 11
79.155861
 21
9.030068
 39
0
 62
0
  0
LINE
  8
default
  6
CONTINUOUS
 10
79.155861
 20
9.030068
 11
78.760898
 21
8.845900
 39
0
 62
0
  0
LINE
  8
default
  6
CONTINUOUS
 10
78.760898
 20
8.845900
 11
78.403948
 21
8.595948
 39
0
 62
0
  0
LINE
  8
default
  6
CONTINUOUS
 10
78.403948
 20
8.595948
 11
78.095799
 21
8.287806
 39
0
 62
0
  0
LINE
  8
default
  6
CONTINUOUS
 10
78.095799
 20
8.287806
 11
77.845847
 21
7.930837
 39
0
 62
0
  0
LINE
  8
default
  6
CONTINUOUS
 10
77.845847
 20
7.930837
 11
77.661685
 21
7.535887
 39
0
 62
0
  0
LINE
  8
default
  6
CONTINUOUS
 10
77.661685
 20
7.535887
 11
77.548896
 21
7.114957
 39
0
 62
0
  0
LINE
  8
default
  6
CONTINUOUS
 10
67.124292
 20
2.843995
 11
67.404401
 21
2.510169
 39
0
 62
0
  0
LINE
  8
default
  6
CONTINUOUS
 10
67.404401
 20
2.510169
 11
67.738228
 21
2.230056
 39
0
 62
0
  0
LINE
  8
default
  6
CONTINUOUS
 10
67.738228
 20
2.230056
 11
68.115623
 21
2.012167
 39
0
 62
0
  0
LINE
  8
default
  6
CONTINUOUS
 10
68.115623
 20
2.012167
 11
68.525122
 21
1.863122
 39
0
 62
0
  0
LINE
  8
default
  6
CONTINUOUS
 10
68.525122
 20
1.863122
 11
68.954284
 21
1.787449
 39
0
 62
0
  0
LINE
  8
default
  6
CONTINUOUS
 10
68.954284
 20
1.787449
 11
69.390060
 21
1.787449
 39
0
 62
0
  0
LINE
  8
default
  6
CONTINUOUS
 10
69.390060
 20
1.787449
 11
69.819222
 21
1.863122
 39
0
 62
0
  0
LINE
  8
default
  6
CONTINUOUS
 10
69.819222
 20
1.863122
 11
70.228721
 21
2.012167
 39
0
 62
0
  0
LINE
  8
default
  6
CONTINUOUS
 10
70.228721
 20
2.012167
 11
70.606108
 21
2.230056
 39
0
 62
0
  0
LINE
  8
default
  6
CONTINUOUS
 10
70.606108
 20
2.230056
 11
70.939939
 21
2.510169
 39
0
 62
0
  0
LINE
  8
default
  6
CONTINUOUS
 10
70.939939
 20
2.510169
 11
71.220053
 21
2.843995
 39
0
 62
0
  0
LINE
  8
default
  6
CONTINUOUS
 10
71.220053
 20
2.843995
 11
71.437941
 21
3.221390
 39
0
 62
0
  0
LINE
  8
default
  6
CONTINUOUS
 10
71.437941
 20
3.221390
 11
71.586989
 21
3.630888
 39
0
 62
0
  0
LINE
  8
default
  6
CONTINUOUS
 10
71.586989
 20
3.630888
 11
71.662657
 21
4.060047
 39
0
 62
0
  0
LINE
  8
default
  6
CONTINUOUS
 10
71.662657
 20
4.060047
 11
71.662657
 21
4.495825
 39
0
 62
0
  0
LINE
  8
default
  6
CONTINUOUS
 10
71.662657
 20
4.495825
 11
71.586989
 21
4.924984
 39
0
 62
0
  0
LINE
  8
default
  6
CONTINUOUS
 10
71.586989
 20
4.924984
 11
71.437941
 21
5.334482
 39
0
 62
0
  0
LINE
  8
default
  6
CONTINUOUS
 10
71.437941
 20
5.334482
 11
71.220053
 21
5.711877
 39
0
 62
0
  0
LINE
  8
default
  6
CONTINUOUS
 10
71.220053
 20
5.711877
 11
70.939939
 21
6.045703
 39
0
 62
0
  0
LINE
  8
default
  6
CONTINUOUS
 10
70.939939
 20
6.045703
 11
70.606108
 21
6.325815
 39
0
 62
0
  0
LINE
  8
default
  6
CONTINUOUS
 10
70.606108
 20
6.325815
 11
70.228721
 21
6.543706
 39
0
 62
0
  0
LINE
  8
default
  6
CONTINUOUS
 10
70.228721
 20
6.543706
 11
69.819222
 21
6.692751
 39
0
 62
0
  0
LINE
  8
default
  6
CONTINUOUS
 10
69.819222
 20
6.692751
 11
69.390060
 21
6.768423
 39
0
 62
0
  0
LINE
  8
default
  6
CONTINUOUS
 10
69.390060
 20
6.768423
 11
68.954284
 21
6.768423
 39
0
 62
0
  0
LINE
  8
default
  6
CONTINUOUS
 10
68.954284
 20
6.768423
 11
68.525122
 21
6.692751
 39
0
 62
0
  0
LINE
  8
default
  6
CONTINUOUS
 10
68.525122
 20
6.692751
 11
68.115623
 21
6.543706
 39
0
 62
0
  0
LINE
  8
default
  6
CONTINUOUS
 10
68.115623
 20
6.543706
 11
67.738228
 21
6.325815
 39
0
 62
0
  0
LINE
  8
default
  6
CONTINUOUS
 10
67.738228
 20
6.325815
 11
67.404401
 21
6.045703
 39
0
 62
0
  0
LINE
  8
default
  6
CONTINUOUS
 10
67.404401
 20
6.045703
 11
67.124292
 21
5.711877
 39
0
 62
0
  0
LINE
  8
default
  6
CONTINUOUS
 10
67.124292
 20
5.711877
 11
66.906404
 21
5.334482
 39
0
 62
0
  0
LINE
  8
default
  6
CONTINUOUS
 10
66.906404
 20
5.334482
 11
66.757356
 21
4.924984
 39
0
 62
0
  0
LINE
  8
default
  6
CONTINUOUS
 10
66.757356
 20
4.924984
 11
66.681688
 21
4.495825
 39
0
 62
0
  0
LINE
  8
default
  6
CONTINUOUS
 10
66.681688
 20
4.495825
 11
66.681688
 21
4.060047
 39
0
 62
0
  0
LINE
  8
default
  6
CONTINUOUS
 10
66.681688
 20
4.060047
 11
66.757356
 21
3.630888
 39
0
 62
0
  0
LINE
  8
default
  6
CONTINUOUS
 10
66.757356
 20
3.630888
 11
66.906404
 21
3.221390
 39
0
 62
0
  0
LINE
  8
default
  6
CONTINUOUS
 10
66.906404
 20
3.221390
 11
67.124292
 21
2.843995
 39
0
 62
0
  0
LINE
  8
default
  6
CONTINUOUS
 10
79.142676
 20
1.756802
 11
77.492090
 21
1.901209
 39
0
 62
0
  0
LINE
  8
default
  6
CONTINUOUS
 10
77.492090
 20
1.901209
 11
75.841505
 21
1.756802
 39
0
 62
0
  0
LINE
  8
default
  6
CONTINUOUS
 10
75.841505
 20
1.756802
 11
74.241076
 21
1.327967
 39
0
 62
0
  0
LINE
  8
default
  6
CONTINUOUS
 10
74.241076
 20
1.327967
 11
72.739416
 21
0.627734
 39
0
 62
0
  0
LINE
  8
default
  6
CONTINUOUS
 10
72.739416
 20
0.627734
 11
71.788696
 21
-0.000000
 39
0
 62
0
  0
LINE
  8
default
  6
CONTINUOUS
 10
84.636297
 20
-0.000001
 11
81.052890
 21
1.313540
 39
0
 62
0
  0
LINE
  8
default
  6
CONTINUOUS
 10
81.052890
 20
1.313540
 11
79.139719
 21
1.739975
 39
0
 62
0
  0
LINE
  8
default
  6
CONTINUOUS
 10
92.622966
 20
0.000003
 11
92.942812
 21
0.295988
 39
0
 62
0
  0
LINE
  8
default
  6
CONTINUOUS
 10
92.942812
 20
0.295988
 11
93.206386
 21
0.643015
 39
0
 62
0
  0
LINE
  8
default
  6
CONTINUOUS
 10
93.206386
 20
0.643015
 11
93.405709
 21
1.030541
 39
0
 62
0
  0
LINE
  8
default
  6
CONTINUOUS
 10
93.405709
 20
1.030541
 11
93.534701
 21
1.446790
 39
0
 62
0
  0
LINE
  8
default
  6
CONTINUOUS
 10
93.534701
 20
1.446790
 11
93.589451
 21
1.879116
 39
0
 62
0
  0
LINE
  8
default
  6
CONTINUOUS
 10
93.589451
 20
1.879116
 11
93.568305
 21
2.314381
 39
0
 62
0
  0
LINE
  8
default
  6
CONTINUOUS
 10
93.568305
 20
2.314381
 11
93.471894
 21
2.739361
 39
0
 62
0
  0
LINE
  8
default
  6
CONTINUOUS
 10
93.471894
 20
2.739361
 11
93.303148
 21
3.141142
 39
0
 62
0
  0
LINE
  8
default
  6
CONTINUOUS
 10
93.303148
 20
3.141142
 11
93.067202
 21
3.507518
 39
0
 62
0
  0
LINE
  8
default
  6
CONTINUOUS
 10
93.067202
 20
3.507518
 11
92.771214
 21
3.827355
 39
0
 62
0
  0
LINE
  8
default
  6
CONTINUOUS
 10
92.771214
 20
3.827355
 11
92.424185
 21
4.090936
 39
0
 62
0
  0
LINE
  8
default
  6
CONTINUOUS
 10
92.424185
 20
4.090936
 11
92.036659
 21
4.290252
 39
0
 62
0
  0
LINE
  8
default
  6
CONTINUOUS
 10
92.036659
 20
4.290252
 11
91.620410
 21
4.419247
 39
0
 62
0
  0
LINE
  8
default
  6
CONTINUOUS
 10
91.620410
 20
4.419247
 11
91.188090
 21
4.474000
 39
0
 62
0
  0
LINE
  8
default
  6
CONTINUOUS
 10
91.188090
 20
4.474000
 11
90.752821
 21
4.452850
 39
0
 62
0
  0
LINE
  8
default
  6
CONTINUOUS
 10
90.752821
 20
4.452850
 11
90.327841
 21
4.356438
 39
0
 62
0
  0
LINE
  8
default
  6
CONTINUOUS
 10
90.327841
 20
4.356438
 11
89.926063
 21
4.187694
 39
0
 62
0
  0
LINE
  8
default
  6
CONTINUOUS
 10
89.926063
 20
4.187694
 11
89.559682
 21
3.951744
 39
0
 62
0
  0
LINE
  8
default
  6
CONTINUOUS
 10
89.559682
 20
3.951744
 11
89.239845
 21
3.655759
 39
0
 62
0
  0
LINE
  8
default
  6
CONTINUOUS
 10
89.239845
 20
3.655759
 11
88.976262
 21
3.308732
 39
0
 62
0
  0
LINE
  8
default
  6
CONTINUOUS
 10
88.976262
 20
3.308732
 11
88.776948
 21
2.921206
 39
0
 62
0
  0
LINE
  8
default
  6
CONTINUOUS
 10
88.776948
 20
2.921206
 11
88.647956
 21
2.504956
 39
0
 62
0
  0
LINE
  8
default
  6
CONTINUOUS
 10
88.647956
 20
2.504956
 11
88.593197
 21
2.072631
 39
0
 62
0
  0
LINE
  8
default
  6
CONTINUOUS
 10
88.593197
 20
2.072631
 11
88.614352
 21
1.637366
 39
0
 62
0
  0
LINE
  8
default
  6
CONTINUOUS
 10
88.614352
 20
1.637366
 11
88.710763
 21
1.212386
 39
0
 62
0
  0
LINE
  8
default
  6
CONTINUOUS
 10
88.710763
 20
1.212386
 11
88.879509
 21
0.810605
 39
0
 62
0
  0
LINE
  8
default
  6
CONTINUOUS
 10
88.879509
 20
0.810605
 11
89.115455
 21
0.444229
 39
0
 62
0
  0
LINE
  8
default
  6
CONTINUOUS
 10
89.115455
 20
0.444229
 11
89.411443
 21
0.124392
 39
0
 62
0
  0
LINE
  8
default
  6
CONTINUOUS
 10
89.411443
 20
0.124392
 11
89.559682
 21
0.000005
 39
0
 62
0
  0
LINE
  8
default
  6
CONTINUOUS
 10
79.576799
 20
4.218822
 11
77.492090
 21
4.401209
 39
0
 62
0
  0
LINE
  8
default
  6
CONTINUOUS
 10
77.492090
 20
4.401209
 11
75.407382
 21
4.218822
 39
0
 62
0
  0
LINE
  8
default
  6
CONTINUOUS
 10
75.407382
 20
4.218822
 11
73.386015
 21
3.677198
 39
0
 62
0
  0
LINE
  8
default
  6
CONTINUOUS
 10
73.386015
 20
3.677198
 11
71.489418
 21
2.792798
 39
0
 62
0
  0
LINE
  8
default
  6
CONTINUOUS
 10
71.489418
 20
2.792798
 11
69.775198
 21
1.592492
 39
0
 62
0
  0
LINE
  8
default
  6
CONTINUOUS
 10
69.775198
 20
1.592492
 11
68.295463
 21
0.112751
 39
0
 62
0
  0
LINE
  8
default
  6
CONTINUOUS
 10
68.295463
 20
0.112751
 11
68.202017
 21
0.000001
 39
0
 62
0
  0
LINE
  8
default
  6
CONTINUOUS
 10
89.557023
 20
-0.000003
 11
85.898858
 21
2.168013
 39
0
 62
0
  0
LINE
  8
default
  6
CONTINUOUS
 10
85.898858
 20
2.168013
 11
81.919797
 21
3.667858
 39
0
 62
0
  0
LINE
  8
default
  6
CONTINUOUS
 10
81.919797
 20
3.667858
 11
79.573833
 21
4.201991
 39
0
 62
0
  0
LINE
  8
default
  6
CONTINUOUS
 10
38.369367
 20
99.310540
 11
36.251656
 21
96.240712
 39
0
 62
0
  0
LINE
  8
default
  6
CONTINUOUS
 10
36.251656
 20
96.240712
 11
34.699188
 21
92.849795
 39
0
 62
0
  0
LINE
  8
default
  6
CONTINUOUS
 10
34.699188
 20
92.849795
 11
33.759129
 21
89.240798
 39
0
 62
0
  0
LINE
  8
default
  6
CONTINUOUS
 10
33.759129
 20
89.240798
 11
33.460048
 21
85.523387
 39
0
 62
0
  0
LINE
  8
default
  6
CONTINUOUS
 10
33.460048
 20
85.523387
 11
33.811031
 21
81.810533
 39
0
 62
0
  0
LINE
  8
default
  6
CONTINUOUS
 10
33.811031
 20
81.810533
 11
34.801415
 21
78.215027
 39
0
 62
0
  0
LINE
  8
default
  6
CONTINUOUS
 10
34.801415
 20
78.215027
 11
36.401103
 21
74.846123
 39
0
 62
0
  0
LINE
  8
default
  6
CONTINUOUS
 10
36.401103
 20
74.846123
 11
38.561494
 21
71.806176
 39
0
 62
0
  0
LINE
  8
default
  6
CONTINUOUS
 10
38.561494
 20
71.806176
 11
41.216946
 21
69.187570
 39
0
 62
0
  0
LINE
  8
default
  6
CONTINUOUS
 10
41.216946
 20
69.187570
 11
44.286774
 21
67.069853
 39
0
 62
0
  0
LINE
  8
default
  6
CONTINUOUS
 10
44.286774
 20
67.069853
 11
47.677690
 21
65.517389
 39
0
 62
0
  0
LINE
  8
default
  6
CONTINUOUS
 10
47.677690
 20
65.517389
 11
51.139419
 21
64.602767
 39
0
 62
0
  0
LINE
  8
default
  6
CONTINUOUS
 10
38.369367
 20
99.310540
 11
38.256665
 21
96.436614
 39
0
 62
0
  0
LINE
  8
default
  6
CONTINUOUS
 10
38.256665
 20
96.436614
 11
38.644721
 21
93.586765
 39
0
 62
0
  0
LINE
  8
default
  6
CONTINUOUS
 10
38.644721
 20
93.586765
 11
39.521750
 21
90.847614
 39
0
 62
0
  0
LINE
  8
default
  6
CONTINUOUS
 10
39.521750
 20
90.847614
 11
40.861111
 21
88.302362
 39
0
 62
0
  0
LINE
  8
default
  6
CONTINUOUS
 10
40.861111
 20
88.302362
 11
42.622102
 21
86.028357
 39
0
 62
0
  0
LINE
  8
default
  6
CONTINUOUS
 10
42.622102
 20
86.028357
 11
44.751211
 21
84.094696
 39
0
 62
0
  0
LINE
  8
default
  6
CONTINUOUS
 10
44.751211
 20
84.094696
 11
47.183748
 21
82.560119
 39
0
 62
0
  0
LINE
  8
default
  6
CONTINUOUS
 10
47.183748
 20
82.560119
 11
49.117015
 21
81.716274
 39
0
 62
0
  0
LINE
  8
default
  6
CONTINUOUS
 10
49.539397
 20
97.056394
 11
48.737931
 21
97.401192
 39
0
 62
0
  0
LINE
  8
default
  6
CONTINUOUS
 10
48.737931
 20
97.401192
 11
47.888763
 21
97.601573
 39
0
 62
0
  0
LINE
  8
default
  6
CONTINUOUS
 10
47.888763
 20
97.601573
 11
47.017701
 21
97.651459
 39
0
 62
0
  0
LINE
  8
default
  6
CONTINUOUS
 10
47.017701
 20
97.651459
 11
46.151210
 21
97.549326
 39
0
 62
0
  0
LINE
  8
default
  6
CONTINUOUS
 10
46.151210
 20
97.549326
 11
45.315615
 21
97.298280
 39
0
 62
0
  0
LINE
  8
default
  6
CONTINUOUS
 10
45.315615
 20
97.298280
 11
44.536306
 21
96.905950
 39
0
 62
0
  0
LINE
  8
default
  6
CONTINUOUS
 10
44.536306
 20
96.905950
 11
43.836969
 21
96.384253
 39
0
 62
0
  0
LINE
  8
default
  6
CONTINUOUS
 10
43.836969
 20
96.384253
 11
43.238851
 21
95.749049
 39
0
 62
0
  0
LINE
  8
default
  6
CONTINUOUS
 10
43.238851
 20
95.749049
 11
42.760123
 21
95.019629
 39
0
 62
0
  0
LINE
  8
default
  6
CONTINUOUS
 10
42.760123
 20
95.019629
 11
42.415325
 21
94.218163
 39
0
 62
0
  0
LINE
  8
default
  6
CONTINUOUS
 10
42.415325
 20
94.218163
 11
42.214944
 21
93.369000
 39
0
 62
0
  0
LINE
  8
default
  6
CONTINUOUS
 10
42.214944
 20
93.369000
 11
42.165058
 21
92.497929
 39
0
 62
0
  0
LINE
  8
default
  6
CONTINUOUS
 10
42.165058
 20
92.497929
 11
42.267187
 21
91.631442
 39
0
 62
0
  0
LINE
  8
default
  6
CONTINUOUS
 10
42.267187
 20
91.631442
 11
42.518233
 21
90.795848
 39
0
 62
0
  0
LINE
  8
default
  6
CONTINUOUS
 10
42.518233
 20
90.795848
 11
42.910562
 21
90.016543
 39
0
 62
0
  0
LINE
  8
default
  6
CONTINUOUS
 10
42.910562
 20
90.016543
 11
43.432260
 21
89.317210
 39
0
 62
0
  0
LINE
  8
default
  6
CONTINUOUS
 10
43.432260
 20
89.317210
 11
44.067468
 21
88.719083
 39
0
 62
0
  0
LINE
  8
default
  6
CONTINUOUS
 10
44.067468
 20
88.719083
 11
44.796888
 21
88.240351
 39
0
 62
0
  0
LINE
  8
default
  6
CONTINUOUS
 10
44.796888
 20
88.240351
 11
45.598358
 21
87.895553
 39
0
 62
0
  0
LINE
  8
default
  6
CONTINUOUS
 10
45.598358
 20
87.895553
 11
46.447526
 21
87.695163
 39
0
 62
0
  0
LINE
  8
default
  6
CONTINUOUS
 10
46.447526
 20
87.695163
 11
47.318588
 21
87.645286
 39
0
 62
0
  0
LINE
  8
default
  6
CONTINUOUS
 10
47.318588
 20
87.645286
 11
48.185079
 21
87.747419
 39
0
 62
0
  0
LINE
  8
default
  6
CONTINUOUS
 10
48.185079
 20
87.747419
 11
48.880072
 21
87.944888
 39
0
 62
0
  0
LINE
  8
default
  6
CONTINUOUS
 10
49.539401
 20
97.056394
 11
52.649053
 21
98.816838
 39
0
 62
0
  0
LINE
  8
default
  6
CONTINUOUS
 10
52.649053
 20
98.816838
 11
54.205104
 21
100.000000
 39
0
 62
0
  0
LINE
  8
default
  6
CONTINUOUS
 10
48.874228
 20
87.960933
 11
51.622307
 21
89.242382
 39
0
 62
0
  0
LINE
  8
default
  6
CONTINUOUS
 10
51.622307
 20
89.242382
 11
54.106112
 21
90.981558
 39
0
 62
0
  0
LINE
  8
default
  6
CONTINUOUS
 10
54.106112
 20
90.981558
 11
56.250181
 21
93.125635
 39
0
 62
0
  0
LINE
  8
default
  6
CONTINUOUS
 10
56.250181
 20
93.125635
 11
57.989361
 21
95.609436
 39
0
 62
0
  0
LINE
  8
default
  6
CONTINUOUS
 10
57.989361
 20
95.609436
 11
59.270810
 21
98.357510
 39
0
 62
0
  0
LINE
  8
default
  6
CONTINUOUS
 10
59.270810
 20
98.357510
 11
59.778229
 21
100.000000
 39
0
 62
0
  0
LINE
  8
default
  6
CONTINUOUS
 10
54.205109
 20
0.000003
 11
56.732723
 21
2.525919
 39
0
 62
0
  0
LINE
  8
default
  6
CONTINUOUS
 10
56.732723
 20
2.525919
 11
58.783316
 21
5.452376
 39
0
 62
0
  0
LINE
  8
default
  6
CONTINUOUS
 10
58.783316
 20
5.452376
 11
59.959224
 21
7.830710
 39
0
 62
0
  0
LINE
  8
default
  6
CONTINUOUS
 10
59.778229
 20
-0.000000
 11
60.270089
 21
2.992009
 39
0
 62
0
  0
LINE
  8
default
  6
CONTINUOUS
 10
60.270089
 20
2.992009
 11
60.234919
 21
6.023974
 39
0
 62
0
  0
LINE
  8
default
  6
CONTINUOUS
 10
60.234919
 20
6.023974
 11
59.959224
 21
7.830714
 39
0
 62
0
  0
LINE
  8
default
  6
CONTINUOUS
 10
5.256338
 20
0.000001
 11
5.381492
 21
0.417421
 39
0
 62
0
  0
LINE
  8
default
  6
CONTINUOUS
 10
5.381492
 20
0.417421
 11
5.432260
 21
0.850233
 39
0
 62
0
  0
LINE
  8
default
  6
CONTINUOUS
 10
5.432260
 20
0.850233
 11
5.407099
 21
1.285285
 39
0
 62
0
  0
LINE
  8
default
  6
CONTINUOUS
 10
5.407099
 20
1.285285
 11
5.306775
 21
1.709358
 39
0
 62
0
  0
LINE
  8
default
  6
CONTINUOUS
 10
5.306775
 20
1.709358
 11
5.134335
 21
2.109567
 39
0
 62
0
  0
LINE
  8
default
  6
CONTINUOUS
 10
5.134335
 20
2.109567
 11
4.895020
 21
2.473753
 39
0
 62
0
  0
LINE
  8
default
  6
CONTINUOUS
 10
4.895020
 20
2.473753
 11
4.596100
 21
2.790849
 39
0
 62
0
  0
LINE
  8
default
  6
CONTINUOUS
 10
4.596100
 20
2.790849
 11
4.246658
 21
3.051221
 39
0
 62
0
  0
LINE
  8
default
  6
CONTINUOUS
 10
4.246658
 20
3.051221
 11
3.857312
 21
3.246957
 39
0
 62
0
  0
LINE
  8
default
  6
CONTINUOUS
 10
3.857312
 20
3.246957
 11
3.439892
 21
3.372111
 39
0
 62
0
  0
LINE
  8
default
  6
CONTINUOUS
 10
3.439892
 20
3.372111
 11
3.007080
 21
3.422878
 39
0
 62
0
  0
LINE
  8
default
  6
CONTINUOUS
 10
3.007080
 20
3.422878
 11
2.572028
 21
3.397718
 39
0
 62
0
  0
LINE
  8
default
  6
CONTINUOUS
 10
2.572028
 20
3.397718
 11
2.147955
 21
3.297393
 39
0
 62
0
  0
LINE
  8
default
  6
CONTINUOUS
 10
2.147955
 20
3.297393
 11
1.747745
 21
3.124954
 39
0
 62
0
  0
LINE
  8
default
  6
CONTINUOUS
 10
1.747745
 20
3.124954
 11
1.383560
 21
2.885638
 39
0
 62
0
  0
LINE
  8
default
  6
CONTINUOUS
 10
1.383560
 20
2.885638
 11
1.066464
 21
2.586719
 39
0
 62
0
  0
LINE
  8
default
  6
CONTINUOUS
 10
1.066464
 20
2.586719
 11
0.806092
 21
2.237277
 39
0
 62
0
  0
LINE
  8
default
  6
CONTINUOUS
 10
0.806092
 20
2.237277
 11
0.610356
 21
1.847930
 39
0
 62
0
  0
LINE
  8
default
  6
CONTINUOUS
 10
0.610356
 20
1.847930
 11
0.485202
 21
1.430510
 39
0
 62
0
  0
LINE
  8
default
  6
CONTINUOUS
 10
0.485202
 20
1.430510
 11
0.434434
 21
0.997699
 39
0
 62
0
  0
LINE
  8
default
  6
CONTINUOUS
 10
0.434434
 20
0.997699
 11
0.459595
 21
0.562647
 39
0
 62
0
  0
LINE
  8
default
  6
CONTINUOUS
 10
0.459595
 20
0.562647
 11
0.559919
 21
0.138574
 39
0
 62
0
  0
LINE
  8
default
  6
CONTINUOUS
 10
0.559919
 20
0.138574
 11
0.610356
 21
0.000001
 39
0
 62
0
  0
LINE
  8
default
  6
CONTINUOUS
 10
30.866255
 20
65.472328
 11
30.578539
 21
67.104047
 39
0
 62
0
  0
LINE
  8
default
  6
CONTINUOUS
 10
30.578539
 20
67.104047
 11
30.011849
 21
68.661017
 39
0
 62
0
  0
LINE
  8
default
  6
CONTINUOUS
 10
30.011849
 20
68.661017
 11
29.183400
 21
70.095933
 39
0
 62
0
  0
LINE
  8
default
  6
CONTINUOUS
 10
29.183400
 20
70.095933
 11
28.118373
 21
71.365182
 39
0
 62
0
  0
LINE
  8
default
  6
CONTINUOUS
 10
28.118373
 20
71.365182
 11
26.849118
 21
72.430212
 39
0
 62
0
  0
LINE
  8
default
  6
CONTINUOUS
 10
26.849118
 20
72.430212
 11
25.414211
 21
73.258659
 39
0
 62
0
  0
LINE
  8
default
  6
CONTINUOUS
 10
25.414211
 20
73.258659
 11
23.857241
 21
73.825343
 39
0
 62
0
  0
LINE
  8
default
  6
CONTINUOUS
 10
23.857241
 20
73.825343
 11
22.225520
 21
74.113064
 39
0
 62
0
  0
LINE
  8
default
  6
CONTINUOUS
 10
22.225520
 20
74.113064
 11
20.568631
 21
74.113064
 39
0
 62
0
  0
LINE
  8
default
  6
CONTINUOUS
 10
20.568631
 20
74.113064
 11
18.936912
 21
73.825343
 39
0
 62
0
  0
LINE
  8
default
  6
CONTINUOUS
 10
18.936912
 20
73.825343
 11
17.379943
 21
73.258659
 39
0
 62
0
  0
LINE
  8
default
  6
CONTINUOUS
 10
17.379943
 20
73.258659
 11
15.945034
 21
72.430212
 39
0
 62
0
  0
LINE
  8
default
  6
CONTINUOUS
 10
15.945034
 20
72.430212
 11
14.675782
 21
71.365182
 39
0
 62
0
  0
LINE
  8
default
  6
CONTINUOUS
 10
14.675782
 20
71.365182
 11
13.610753
 21
70.095933
 39
0
 62
0
  0
LINE
  8
default
  6
CONTINUOUS
 10
13.610753
 20
70.095933
 11
12.782305
 21
68.661017
 39
0
 62
0
  0
LINE
  8
default
  6
CONTINUOUS
 10
12.782305
 20
68.661017
 11
12.215617
 21
67.104047
 39
0
 62
0
  0
LINE
  8
default
  6
CONTINUOUS
 10
12.215617
 20
67.104047
 11
11.927901
 21
65.472328
 39
0
 62
0
  0
LINE
  8
default
  6
CONTINUOUS
 10
11.927901
 20
65.472328
 11
11.927901
 21
63.815435
 39
0
 62
0
  0
LINE
  8
default
  6
CONTINUOUS
 10
11.927901
 20
63.815435
 11
12.215617
 21
62.183720
 39
0
 62
0
  0
LINE
  8
default
  6
CONTINUOUS
 10
12.215617
 20
62.183720
 11
12.782305
 21
60.626750
 39
0
 62
0
  0
LINE
  8
default
  6
CONTINUOUS
 10
12.782305
 20
60.626750
 11
13.610753
 21
59.191835
 39
0
 62
0
  0
LINE
  8
default
  6
CONTINUOUS
 10
13.610753
 20
59.191835
 11
14.270189
 21
58.354276
 39
0
 62
0
  0
LINE
  8
default
  6
CONTINUOUS
 10
-0.000002
 20
41.442397
 11
3.978421
 21
40.209118
 39
0
 62
0
  0
LINE
  8
default
  6
CONTINUOUS
 10
3.978421
 20
40.209118
 11
8.110560
 21
39.685417
 39
0
 62
0
  0
LINE
  8
default
  6
CONTINUOUS
 10
8.110560
 20
39.685417
 11
12.270860
 21
39.887212
 39
0
 62
0
  0
LINE
  8
default
  6
CONTINUOUS
 10
12.270860
 20
39.887212
 11
16.332916
 21
40.808374
 39
0
 62
0
  0
LINE
  8
default
  6
CONTINUOUS
 10
16.332916
 20
40.808374
 11
20.173305
 21
42.420907
 39
0
 62
0
  0
LINE
  8
default
  6
CONTINUOUS
 10
20.173305
 20
42.420907
 11
23.675335
 21
44.675818
 39
0
 62
0
  0
LINE
  8
default
  6
CONTINUOUS
 10
23.675335
 20
44.675818
 11
26.732599
 21
47.504591
 39
0
 62
0
  0
LINE
  8
default
  6
CONTINUOUS
 10
26.732599
 20
47.504591
 11
29.252207
 21
50.821283
 39
0
 62
0
  0
LINE
  8
default
  6
CONTINUOUS
 10
29.252207
 20
50.821283
 11
31.157596
 21
54.525108
 39
0
 62
0
  0
LINE
  8
default
  6
CONTINUOUS
 10
31.157596
 20
54.525108
 11
32.390876
 21
58.503530
 39
0
 62
0
  0
LINE
  8
default
  6
CONTINUOUS
 10
32.390876
 20
58.503530
 11
32.914577
 21
62.635668
 39
0
 62
0
  0
LINE
  8
default
  6
CONTINUOUS
 10
32.914577
 20
62.635668
 11
32.841632
 21
65.645147
 39
0
 62
0
  0
LINE
  8
default
  6
CONTINUOUS
 10
0.000000
 20
43.619615
 11
3.600354
 21
42.353257
 39
0
 62
0
  0
LINE
  8
default
  6
CONTINUOUS
 10
3.600354
 20
42.353257
 11
7.365911
 21
41.731334
 39
0
 62
0
  0
LINE
  8
default
  6
CONTINUOUS
 10
7.365911
 20
41.731334
 11
11.182256
 21
41.772737
 39
0
 62
0
  0
LINE
  8
default
  6
CONTINUOUS
 10
11.182256
 20
41.772737
 11
14.933431
 21
42.476217
 39
0
 62
0
  0
LINE
  8
default
  6
CONTINUOUS
 10
14.933431
 20
42.476217
 11
18.505462
 21
43.820390
 39
0
 62
0
  0
LINE
  8
default
  6
CONTINUOUS
 10
18.505462
 20
43.820390
 11
21.789812
 21
45.764427
 39
0
 62
0
  0
LINE
  8
default
  6
CONTINUOUS
 10
21.789812
 20
45.764427
 11
24.686685
 21
48.249247
 39
0
 62
0
  0
LINE
  8
default
  6
CONTINUOUS
 10
24.686685
 20
48.249247
 11
27.108066
 21
51.199352
 39
0
 62
0
  0
LINE
  8
default
  6
CONTINUOUS
 10
27.108066
 20
51.199352
 11
28.980376
 21
54.525108
 39
0
 62
0
  0
LINE
  8
default
  6
CONTINUOUS
 10
28.980376
 20
54.525108
 11
30.246736
 21
58.125461
 39
0
 62
0
  0
LINE
  8
default
  6
CONTINUOUS
 10
30.246736
 20
58.125461
 11
30.868661
 21
61.891021
 39
0
 62
0
  0
LINE
  8
default
  6
CONTINUOUS
 10
30.868661
 20
61.891021
 11
30.849241
 21
65.470841
 39
0
 62
0
  0
LINE
  8
default
  6
CONTINUOUS
 10
-0.000002
 20
44.091987
 11
2.810172
 21
44.704440
 39
0
 62
0
  0
LINE
  8
default
  6
CONTINUOUS
 10
2.810172
 20
44.704440
 11
5.471303
 21
45.795568
 39
0
 62
0
  0
LINE
  8
default
  6
CONTINUOUS
 10
5.471303
 20
45.795568
 11
7.902532
 21
47.332223
 39
0
 62
0
  0
LINE
  8
default
  6
CONTINUOUS
 10
7.902532
 20
47.332223
 11
10.029986
 21
49.267708
 39
0
 62
0
  0
LINE
  8
default
  6
CONTINUOUS
 10
10.029986
 20
49.267708
 11
11.789027
 21
51.543218
 39
0
 62
0
  0
LINE
  8
default
  6
CONTINUOUS
 10
11.789027
 20
51.543218
 11
13.126208
 21
54.089616
 39
0
 62
0
  0
LINE
  8
default
  6
CONTINUOUS
 10
13.126208
 20
54.089616
 11
14.000896
 21
56.829515
 39
0
 62
0
  0
LINE
  8
default
  6
CONTINUOUS
 10
14.000896
 20
56.829515
 11
14.270188
 21
58.354285
 39
0
 62
0
  0
LINE
  8
default
  6
CONTINUOUS
 10
25.700429
 20
11.444362
 11
25.050455
 21
8.732177
 39
0
 62
0
  0
LINE
  8
default
  6
CONTINUOUS
 10
25.050455
 20
8.732177
 11
24.952357
 21
7.938311
 39
0
 62
0
  0
LINE
  8
default
  6
CONTINUOUS
 10
-0.000002
 20
66.986595
 11
0.434361
 21
67.021682
 39
0
 62
0
  0
LINE
  8
default
  6
CONTINUOUS
 10
0.434361
 20
67.021682
 11
0.856032
 21
67.131667
 39
0
 62
0
  0
LINE
  8
default
  6
CONTINUOUS
 10
0.856032
 20
67.131667
 11
1.252198
 21
67.313208
 39
0
 62
0
  0
LINE
  8
default
  6
CONTINUOUS
 10
1.252198
 20
67.313208
 11
1.610822
 21
67.560781
 39
0
 62
0
  0
LINE
  8
default
  6
CONTINUOUS
 10
1.610822
 20
67.560781
 11
1.921006
 21
67.866865
 39
0
 62
0
  0
LINE
  8
default
  6
CONTINUOUS
 10
1.921006
 20
67.866865
 11
2.173328
 21
68.222166
 39
0
 62
0
  0
LINE
  8
default
  6
CONTINUOUS
 10
2.173328
 20
68.222166
 11
2.360118
 21
68.615882
 39
0
 62
0
  0
LINE
  8
default
  6
CONTINUOUS
 10
2.360118
 20
68.615882
 11
2.475703
 21
69.036050
 39
0
 62
0
  0
LINE
  8
default
  6
CONTINUOUS
 10
2.475703
 20
69.036050
 11
2.516571
 21
69.469910
 39
0
 62
0
  0
LINE
  8
default
  6
CONTINUOUS
 10
2.516571
 20
69.469910
 11
2.481478
 21
69.904273
 39
0
 62
0
  0
LINE
  8
default
  6
CONTINUOUS
 10
2.481478
 20
69.904273
 11
2.371492
 21
70.325942
 39
0
 62
0
  0
LINE
  8
default
  6
CONTINUOUS
 10
2.371492
 20
70.325942
 11
2.189956
 21
70.722108
 39
0
 62
0
  0
LINE
  8
default
  6
CONTINUOUS
 10
2.189956
 20
70.722108
 11
1.942383
 21
71.080733
 39
0
 62
0
  0
LINE
  8
default
  6
CONTINUOUS
 10
1.942383
 20
71.080733
 11
1.636297
 21
71.390916
 39
0
 62
0
  0
LINE
  8
default
  6
CONTINUOUS
 10
1.636297
 20
71.390916
 11
1.280998
 21
71.643244
 39
0
 62
0
  0
LINE
  8
default
  6
CONTINUOUS
 10
1.280998
 20
71.643244
 11
0.887283
 21
71.830030
 39
0
 62
0
  0
LINE
  8
default
  6
CONTINUOUS
 10
0.887283
 20
71.830030
 11
0.467112
 21
71.945618
 39
0
 62
0
  0
LINE
  8
default
  6
CONTINUOUS
 10
0.467112
 20
71.945618
 11
0.033254
 21
71.986479
 39
0
 62
0
  0
LINE
  8
default
  6
CONTINUOUS
 10
0.033254
 20
71.986479
 11
-0.000002
 21
71.986479
 39
0
 62
0
  0
LINE
  8
default
  6
CONTINUOUS
 10
24.038319
 20
0.000000
 11
24.317190
 21
1.188843
 39
0
 62
0
  0
LINE
  8
default
  6
CONTINUOUS
 10
24.317190
 20
1.188843
 11
24.385387
 21
2.408049
 39
0
 62
0
  0
LINE
  8
default
  6
CONTINUOUS
 10
24.385387
 20
2.408049
 11
24.240835
 21
3.620576
 39
0
 62
0
  0
LINE
  8
default
  6
CONTINUOUS
 10
24.240835
 20
3.620576
 11
23.887923
 21
4.789580
 39
0
 62
0
  0
LINE
  8
default
  6
CONTINUOUS
 10
23.887923
 20
4.789580
 11
23.337381
 21
5.879542
 39
0
 62
0
  0
LINE
  8
default
  6
CONTINUOUS
 10
23.337381
 20
5.879542
 11
22.605929
 21
6.857344
 39
0
 62
0
  0
LINE
  8
default
  6
CONTINUOUS
 10
22.605929
 20
6.857344
 11
22.389487
 21
7.088686
 39
0
 62
0
  0
LINE
  8
default
  6
CONTINUOUS
 10
26.633542
 20
0.000002
 11
26.872989
 21
1.639500
 39
0
 62
0
  0
LINE
  8
default
  6
CONTINUOUS
 10
26.872989
 20
1.639500
 11
26.824101
 21
3.295670
 39
0
 62
0
  0
LINE
  8
default
  6
CONTINUOUS
 10
26.824101
 20
3.295670
 11
26.488362
 21
4.918190
 39
0
 62
0
  0
LINE
  8
default
  6
CONTINUOUS
 10
26.488362
 20
4.918190
 11
25.875979
 21
6.457760
 39
0
 62
0
  0
LINE
  8
default
  6
CONTINUOUS
 10
25.875979
 20
6.457760
 11
25.005558
 21
7.867601
 39
0
 62
0
  0
LINE
  8
default
  6
CONTINUOUS
 10
25.005558
 20
7.867601
 11
24.952357
 21
7.938310
 39
0
 62
0
  0
ENDSEC
  0
EOF
