  0
SECTION
  2
HEADER
  9
$LIMMIN
 10
0.000000
 20
0.000000
  9
$LIMMAX
 10
98.948728
 20
58.000543
  9
$EXTMIN
 10
0.000000
 20
0.000000
  9
$EXTMAX
 10
98.948728
 20
58.000543
  9
$ANGBASE
 50
0.000000
  9
$ANGDIR
 70
0
  9
$INSUNITS
 70
0
  9
$DIMALT
 70
4
  9
$DIMLUNIT
 70
2
  9
$DIMASZ
 40
3.000000
  9
$DIMTXT
 40
5.000000
  9
$DIMRND
 40
0.010000
  9
$DIMEXE
 40
2.000000
  9
$DIMEXO
 40
2.000000
  9
$DIMAUNIT
 70
0
  9
$DIMADEC
 70
2
  9
$GRIDUNIT
 10
0.001000
 20
0.001000
  9
$PLIMMIN
 10
0.000000
 20
0.000000
  9
$PLIMMAX
 10
210.000000
 20
297.000000
  9
$PSVPSCALE
 40
1.000000
  0
ENDSEC
  0
SECTION
  2
TABLES
  0
TABLE
  2
LTYPE
 70
     1
  0
LTYPE
  2
CONTINUOUS
 70
    64
  3
Ausgez
 72
    65
 73
  0
 40
0.000000
  0
ENDTAB
  0
TABLE
  2
LAYER
 70
     1
  0
LAYER
  2
default
 70
    64
 62
7
  6
CONTINUOUS
  0
ENDTAB
  0
ENDSEC
  0
SECTION
  2
BLOCKS
  0
ENDSEC
  0
SECTION
  2
ENTITIES
  0
LINE
  8
default
  6
CONTINUOUS
 10
44.947403
 20
8.000783
 11
44.947403
 21
0.000785
 39
0
 62
7
  0
LINE
  8
default
  6
CONTINUOUS
 10
44.947403
 20
0.000785
 11
40.947405
 21
4.000784
 39
0
 62
7
  0
LINE
  8
default
  6
CONTINUOUS
 10
44.946868
 20
0.000240
 11
48.947407
 21
4.000779
 39
0
 62
7
  0
LINE
  8
default
  6
CONTINUOUS
 10
19.948725
 20
58.000543
 11
19.948725
 21
50.000548
 39
0
 62
7
  0
LINE
  8
default
  6
CONTINUOUS
 10
19.948725
 20
50.000548
 11
15.948727
 21
54.000548
 39
0
 62
7
  0
LINE
  8
default
  6
CONTINUOUS
 10
19.948190
 20
50.000003
 11
23.948729
 21
54.000542
 39
0
 62
7
  0
LINE
  8
default
  6
CONTINUOUS
 10
69.948725
 20
58.000543
 11
69.948725
 21
50.000548
 39
0
 62
7
  0
LINE
  8
default
  6
CONTINUOUS
 10
69.948725
 20
50.000548
 11
65.948731
 21
54.000548
 39
0
 62
7
  0
LINE
  8
default
  6
CONTINUOUS
 10
69.948193
 20
50.000003
 11
73.948732
 21
54.000542
 39
0
 62
7
  0
LINE
  8
default
  6
CONTINUOUS
 10
94.948721
 20
8.000543
 11
94.948721
 21
0.000544
 39
0
 62
7
  0
LINE
  8
default
  6
CONTINUOUS
 10
94.948721
 20
0.000544
 11
90.948726
 21
4.000543
 39
0
 62
7
  0
LINE
  8
default
  6
CONTINUOUS
 10
94.948189
 20
0.000000
 11
98.948728
 21
4.000539
 39
0
 62
7
  0
ENDSEC
  0
EOF
