  0
SECTION
  2
HEADER
  9
$LIMMIN
 10
-0.155644
 20
0.000000
  9
$LIMMAX
 10
100.000000
 20
100.622577
  9
$EXTMIN
 10
-0.155644
 20
0.000000
  9
$EXTMAX
 10
100.000000
 20
100.622577
  9
$ANGBASE
 50
0.000000
  9
$ANGDIR
 70
0
  9
$INSUNITS
 70
4
  9
$DIMALT
 70
4
  9
$DIMLUNIT
 70
2
  9
$DIMASZ
 40
3.000000
  9
$DIMTXT
 40
5.000000
  9
$DIMRND
 40
0.010000
  9
$DIMEXE
 40
2.000000
  9
$DIMEXO
 40
2.000000
  9
$DIMAUNIT
 70
0
  9
$DIMADEC
 70
2
  9
$GRIDUNIT
 10
0.001000
 20
0.001000
  9
$PLIMMIN
 10
0.000000
 20
0.000000
  9
$PLIMMAX
 10
297.000000
 20
210.000000
  9
$PSVPSCALE
 40
1.000000
  0
ENDSEC
  0
SECTION
  2
TABLES
  0
TABLE
  2
LTYPE
 70
     1
  0
LTYPE
  2
CONTINUOUS
 70
    64
  3
Ausgez
 72
    65
 73
  0
 40
0.000000
  0
ENDTAB
  0
TABLE
  2
LAYER
 70
     1
  0
LAYER
  2
default
 70
    64
 39
0
 62
0
  6
CONTINUOUS
  0
ENDTAB
  0
ENDSEC
  0
SECTION
  2
BLOCKS
  0
ENDSEC
  0
SECTION
  2
ENTITIES
  0
ARC
  8
default
  6
CONTINUOUS
 10
20.000000
 20
2.500000
 40
20.155644
 50
60.255119
 51
187.125016
 39
0
 62
0
  0
ARC
  8
default
  6
CONTINUOUS
 10
22.500000
 20
30.000000
 40
20.155644
 50
262.874984
 51
29.744881
 39
0
 62
0
  0
ARC
  8
default
  6
CONTINUOUS
 10
30.000000
 20
60.000000
 40
22.360680
 50
63.434949
 51
206.565051
 39
0
 62
0
  0
ARC
  8
default
  6
CONTINUOUS
 10
45.000000
 20
95.000000
 40
35.355339
 50
225.000000
 51
315.000000
 39
0
 62
0
  0
ARC
  8
default
  6
CONTINUOUS
 10
45.000000
 20
15.000000
 40
35.355339
 50
45.000000
 51
135.000000
 39
0
 62
0
  0
ARC
  8
default
  6
CONTINUOUS
 10
43.750000
 20
40.000000
 40
50.389111
 50
336.614779
 51
82.874984
 39
0
 62
0
  0
ARC
  8
default
  6
CONTINUOUS
 10
60.000000
 20
30.000000
 40
22.360680
 50
243.434949
 51
63.434949
 39
0
 62
0
  0
ARC
  8
default
  6
CONTINUOUS
 10
55.000000
 20
25.000000
 40
15.811388
 50
341.565051
 51
71.565051
 39
0
 62
0
  0
ARC
  8
default
  6
CONTINUOUS
 10
50.000000
 20
20.000000
 40
80.622577
 50
60.255119
 51
119.744881
 39
0
 62
0
  0
ARC
  8
default
  6
CONTINUOUS
 10
110.000000
 20
20.000000
 40
22.360680
 50
153.434949
 51
243.434949
 39
0
 62
0
  0
ENDSEC
  0
EOF
