  0
SECTION
  2
HEADER
  9
$LIMMIN
 10
0.000000
 20
0.000000
  9
$LIMMAX
 10
70.000000
 20
100.000000
  9
$EXTMIN
 10
0.000000
 20
0.000000
  9
$EXTMAX
 10
70.000000
 20
100.000000
  9
$ANGBASE
 50
0.000000
  9
$ANGDIR
 70
0
  9
$INSUNITS
 70
0
  9
$DIMALT
 70
4
  9
$DIMLUNIT
 70
2
  9
$DIMASZ
 40
3.000000
  9
$DIMTXT
 40
5.000000
  9
$DIMRND
 40
0.010000
  9
$DIMEXE
 40
2.000000
  9
$DIMEXO
 40
2.000000
  9
$DIMAUNIT
 70
0
  9
$DIMADEC
 70
2
  9
$GRIDUNIT
 10
0.001000
 20
0.001000
  9
$PLIMMIN
 10
0.000000
 20
0.000000
  9
$PLIMMAX
 10
210.000000
 20
297.000000
  9
$PSVPSCALE
 40
1.000000
  0
ENDSEC
  0
SECTION
  2
TABLES
  0
TABLE
  2
LTYPE
 70
     1
  0
LTYPE
  2
CONTINUOUS
 70
    64
  3
Ausgez
 72
    65
 73
  0
 40
0.000000
  0
ENDTAB
  0
TABLE
  2
LAYER
 70
     1
  0
LAYER
  2
default
 70
    64
 62
0
  6
CONTINUOUS
  0
ENDTAB
  0
ENDSEC
  0
SECTION
  2
BLOCKS
  0
ENDSEC
  0
SECTION
  2
ENTITIES
  0
LINE
  8
default
  6
CONTINUOUS
 10
20.000000
 20
0.000000
 11
20.000000
 21
100.000000
 39
0
 62
7
  0
LINE
  8
default
  6
CONTINUOUS
 10
70.000000
 20
0.000000
 11
70.000000
 21
100.000000
 39
0
 62
7
  0
LINE
  8
default
  6
CONTINUOUS
 10
50.000000
 20
0.000000
 11
50.000000
 21
100.000000
 39
0
 62
7
  0
LINE
  8
default
  6
CONTINUOUS
 10
20.000000
 20
0.000000
 11
18.660000
 21
5.000000
 39
0
 62
7
  0
LINE
  8
default
  6
CONTINUOUS
 10
18.660000
 20
5.000000
 11
15.000000
 21
8.660000
 39
0
 62
7
  0
LINE
  8
default
  6
CONTINUOUS
 10
15.000000
 20
8.660000
 11
10.000000
 21
10.000000
 39
0
 62
7
  0
LINE
  8
default
  6
CONTINUOUS
 10
10.000000
 20
10.000000
 11
5.000000
 21
8.660000
 39
0
 62
7
  0
LINE
  8
default
  6
CONTINUOUS
 10
5.000000
 20
8.660000
 11
1.340000
 21
5.000000
 39
0
 62
7
  0
LINE
  8
default
  6
CONTINUOUS
 10
0.000000
 20
100.000000
 11
0.000000
 21
0.000000
 39
0
 62
7
  0
LINE
  8
default
  6
CONTINUOUS
 10
1.340000
 20
5.000000
 11
0.000000
 21
0.000000
 39
0
 62
7
  0
LINE
  8
default
  6
CONTINUOUS
 10
70.000000
 20
0.000000
 11
68.660000
 21
5.000000
 39
0
 62
7
  0
LINE
  8
default
  6
CONTINUOUS
 10
68.660000
 20
5.000000
 11
65.000000
 21
8.660000
 39
0
 62
7
  0
LINE
  8
default
  6
CONTINUOUS
 10
65.000000
 20
8.660000
 11
60.000000
 21
10.000000
 39
0
 62
7
  0
LINE
  8
default
  6
CONTINUOUS
 10
60.000000
 20
10.000000
 11
55.000000
 21
8.660000
 39
0
 62
7
  0
LINE
  8
default
  6
CONTINUOUS
 10
55.000000
 20
8.660000
 11
51.340000
 21
5.000000
 39
0
 62
7
  0
LINE
  8
default
  6
CONTINUOUS
 10
51.340000
 20
5.000000
 11
50.000000
 21
0.000000
 39
0
 62
7
  0
LINE
  8
default
  6
CONTINUOUS
 10
20.000000
 20
50.000000
 11
18.660000
 21
55.000000
 39
0
 62
7
  0
LINE
  8
default
  6
CONTINUOUS
 10
18.660000
 20
55.000000
 11
15.000000
 21
58.660000
 39
0
 62
7
  0
LINE
  8
default
  6
CONTINUOUS
 10
15.000000
 20
58.660000
 11
10.000000
 21
60.000000
 39
0
 62
7
  0
LINE
  8
default
  6
CONTINUOUS
 10
10.000000
 20
60.000000
 11
5.000000
 21
58.660000
 39
0
 62
7
  0
LINE
  8
default
  6
CONTINUOUS
 10
5.000000
 20
58.660000
 11
1.340000
 21
55.000000
 39
0
 62
7
  0
LINE
  8
default
  6
CONTINUOUS
 10
1.340000
 20
55.000000
 11
0.000000
 21
50.000000
 39
0
 62
7
  0
LINE
  8
default
  6
CONTINUOUS
 10
70.000000
 20
50.000000
 11
68.660000
 21
55.000000
 39
0
 62
7
  0
LINE
  8
default
  6
CONTINUOUS
 10
68.660000
 20
55.000000
 11
65.000000
 21
58.660000
 39
0
 62
7
  0
LINE
  8
default
  6
CONTINUOUS
 10
65.000000
 20
58.660000
 11
60.000000
 21
60.000000
 39
0
 62
7
  0
LINE
  8
default
  6
CONTINUOUS
 10
60.000000
 20
60.000000
 11
55.000000
 21
58.660000
 39
0
 62
7
  0
LINE
  8
default
  6
CONTINUOUS
 10
55.000000
 20
58.660000
 11
51.340000
 21
55.000000
 39
0
 62
7
  0
LINE
  8
default
  6
CONTINUOUS
 10
51.340000
 20
55.000000
 11
50.000000
 21
50.000000
 39
0
 62
7
  0
ENDSEC
  0
EOF
