  0
SECTION
  2
HEADER
  9
$LIMMIN
 10
0.000000
 20
0.000000
  9
$LIMMAX
 10
99.999999
 20
100.000490
  9
$EXTMIN
 10
0.000000
 20
0.000000
  9
$EXTMAX
 10
99.999999
 20
100.000490
  9
$ANGBASE
 50
0.000000
  9
$ANGDIR
 70
0
  9
$INSUNITS
 70
0
  9
$DIMALT
 70
4
  9
$DIMLUNIT
 70
2
  9
$DIMASZ
 40
3.000000
  9
$DIMTXT
 40
5.000000
  9
$DIMRND
 40
0.010000
  9
$DIMEXE
 40
2.000000
  9
$DIMEXO
 40
2.000000
  9
$DIMAUNIT
 70
0
  9
$DIMADEC
 70
2
  9
$GRIDUNIT
 10
0.001000
 20
0.001000
  9
$PLIMMIN
 10
0.000000
 20
0.000000
  9
$PLIMMAX
 10
210.000000
 20
297.000000
  9
$PSVPSCALE
 40
1.000000
  0
ENDSEC
  0
SECTION
  2
TABLES
  0
TABLE
  2
LTYPE
 70
     1
  0
LTYPE
  2
CONTINUOUS
 70
    64
  3
Ausgez
 72
    65
 73
  0
 40
0.000000
  0
ENDTAB
  0
TABLE
  2
LAYER
 70
     1
  0
LAYER
  2
default
 70
    64
 62
7
  6
CONTINUOUS
  0
ENDTAB
  0
ENDSEC
  0
SECTION
  2
BLOCKS
  0
ENDSEC
  0
SECTION
  2
ENTITIES
  0
LINE
  8
default
  6
CONTINUOUS
 10
24.999999
 20
0.000000
 11
24.999999
 21
16.666499
 39
0
 62
7
  0
LINE
  8
default
  6
CONTINUOUS
 10
0.000000
 20
16.666499
 11
0.000000
 21
33.333499
 39
0
 62
7
  0
LINE
  8
default
  6
CONTINUOUS
 10
24.999999
 20
33.333499
 11
24.999999
 21
49.999999
 39
0
 62
7
  0
LINE
  8
default
  6
CONTINUOUS
 10
0.000000
 20
49.999999
 11
99.999999
 21
49.999999
 39
0
 62
7
  0
LINE
  8
default
  6
CONTINUOUS
 10
0.000000
 20
33.333499
 11
99.999999
 21
33.333499
 39
0
 62
7
  0
LINE
  8
default
  6
CONTINUOUS
 10
49.999999
 20
16.666499
 11
49.999999
 21
33.333499
 39
0
 62
7
  0
LINE
  8
default
  6
CONTINUOUS
 10
0.000000
 20
16.666499
 11
99.999999
 21
16.666499
 39
0
 62
7
  0
LINE
  8
default
  6
CONTINUOUS
 10
74.999997
 20
0.000000
 11
74.999997
 21
16.666499
 39
0
 62
7
  0
LINE
  8
default
  6
CONTINUOUS
 10
74.999997
 20
33.333499
 11
74.999997
 21
49.999999
 39
0
 62
7
  0
LINE
  8
default
  6
CONTINUOUS
 10
99.999999
 20
16.666499
 11
99.999999
 21
33.333499
 39
0
 62
7
  0
LINE
  8
default
  6
CONTINUOUS
 10
0.000000
 20
49.999999
 11
0.000000
 21
66.666998
 39
0
 62
7
  0
LINE
  8
default
  6
CONTINUOUS
 10
24.999999
 20
66.666998
 11
24.999999
 21
83.333501
 39
0
 62
7
  0
LINE
  8
default
  6
CONTINUOUS
 10
0.000000
 20
83.333501
 11
99.999999
 21
83.333501
 39
0
 62
7
  0
LINE
  8
default
  6
CONTINUOUS
 10
0.000000
 20
66.666998
 11
99.999999
 21
66.666998
 39
0
 62
7
  0
LINE
  8
default
  6
CONTINUOUS
 10
49.999999
 20
49.999999
 11
49.999999
 21
66.666998
 39
0
 62
7
  0
LINE
  8
default
  6
CONTINUOUS
 10
74.999997
 20
66.666998
 11
74.999997
 21
83.333501
 39
0
 62
7
  0
LINE
  8
default
  6
CONTINUOUS
 10
99.999999
 20
49.999999
 11
99.999999
 21
66.666998
 39
0
 62
7
  0
LINE
  8
default
  6
CONTINUOUS
 10
0.000000
 20
83.333501
 11
0.000000
 21
100.000490
 39
0
 62
7
  0
LINE
  8
default
  6
CONTINUOUS
 10
0.000000
 20
100.000490
 11
99.999999
 21
100.000490
 39
0
 62
7
  0
LINE
  8
default
  6
CONTINUOUS
 10
49.999999
 20
83.333501
 11
49.999999
 21
100.000490
 39
0
 62
7
  0
LINE
  8
default
  6
CONTINUOUS
 10
99.999999
 20
83.333501
 11
99.999999
 21
100.000490
 39
0
 62
7
  0
ENDSEC
  0
EOF
